#1
Can someone please tell me in what key these progression is?


---------9---7----9-----------12----9
0-0-0---10---9---10---0-0-0---10---10



I'm trying to solo over this, but I'm too noob to find the right key.
Also, can someone harmonize this for me? An octave lower.
#2
how are we supposed to key this if we can't tell what the notes are?
what strings is this played on
Signature
#3
Sorry. That's the low E and A.


E -------------------------------------
G -------------------------------------
B -------------------------------------
D -------------------------------------
A ---------9---7----9-----------12----9
E 0-0-0---10---9---10---0-0-0---10---10
#4
Its in D maj., really I guess its E dorian.
SPAM
Stock Gibson Pickups from a 2005 V, I think they're a 498T and 500T set FS/FT
Duncan Distortion (regular spaced) FS

Looking for: an acoustic, recording gear, or $
#6
No, its not E minor, it has a C# and an F# so it is E dorian.
SPAM
Stock Gibson Pickups from a 2005 V, I think they're a 498T and 500T set FS/FT
Duncan Distortion (regular spaced) FS

Looking for: an acoustic, recording gear, or $
#8
It's E Dorian.
The "Popped Collar" Award(Sexiest)
Elvenkindje

The "Rest In Real Life" Award(Best Past MT Mod)
Elvenkindje