#1
I'm looking to find guitar riffs that are just absolutely beautiful sounding. An example is like Dee - Randy Rhodes, I just love the way it sounds, or Behind The Screams - CKY is also really good. I want to be able to play these riffs and I'm a pretty experienced guitar player, I can play Eruption and Cliffs of Dover if that helps in any way. If you have any good riffs like that please help me out.
Just Trying To Stay High

Co-Founder of the amazingdm wanks himself to sleep club
#3
try some opeth or 'the road to nowhere' from ozzy
sacrificial beaver of the laney cult

~Gear~

Schecter C-7 Hellraiser
ESP LTD F-2005
Laney VH100R *with free cab*
Roland Cube 60
Cort Acoustic
#5
it seems you a have a liking for acoustic riffs so listen to "Come Clairity" By In Flames
Dimebag Is God!!!!

President Of The Official Dimebag Darrell Fan Club
PM Me to Join




Member #28 of the Official Alkaline Trio Fan Club. PM greenfinger182 to join.
#6
Ya i think I do have a thing for acoustic, less distraction and whatnot it focuses on the guitar which is what I'm aiming for. I pretty much want to serenade the ladies lol.
Just Trying To Stay High

Co-Founder of the amazingdm wanks himself to sleep club
#9
Under the Bridge obviously.
Ain't Nuthin' But a UG Thang: Generic member of the UG Hip Hop/Guitar Music Equality Illuminati

Quote by mydarkesthour

It seems like UG is full of those Caveman Metalheads

Quote by mydarkesthour
I meant caveman as in long haired....


#11
Say It Ain't So and Under the Bridge are two obvious ones.

The acoustic intro to To Live Is to Die is awesome. Fade to Black too...

Also, try this:


e|------0-7--------------------------------------------5----|
B|-----------9-7------0-7--5h7---------------------------5--|
G|--------------------------------------------------6-------|
D|----9-------------------------------6-----------7---------|
A|--7---------------9-------------6/7----7/6----7-----------|
E|----------------7-------------4-------------5-------------|

e|------0-7--9-9h12p9---------------------------------------0--|
B|------------------------9-7--9-9h10------5/9--7-5------------|
G|------------------------------------------------------6------|
D|----9--------------------------------------------------------|
A|--7-------------------9----------------6------------7---7----|
E|--------------------7----------------4------------5----------|

e|-----------------7-------7--9-7-4/5-------4----------------7--------|
B|--9-----9------9---7----------------5--------5---------------7/5-4--|
G|--9--------9---------------------------6-------6--------------------|
D|-----9-------9-------------------------6---------6/9----------------|
A|--7-------------------9-------------4----------------7--------------|
E|-------------------7---------------------------------5--5-----------|

e|--------7--9-7---7-------------------------4---4-7-4----------5-5-5---||
B|--9------------9---------7--9-7-5=p4-------4-4-4-7-4----------5-5-5--o||
G|--9----------------8--------------------5----5----------------6-6-6---||
D|----------------------9--------------6--6------------7--7--7--7-7-7---||
A|--7--7----------------9--------------6---------------7--7--7--7-7-7--o||
E|-------------------7-----------------4---------------5--5--5--5-5-5---||
#13
hotel california is an awesome acoustic song its very good for finger picking purposes and the solo is very rythmic its very easy to pickup.