#1
lol that sounds funny...but anywayz

How would you finger this

__3___ (this is a triad)
------12|101210-------
----13--|------13--12-
--14----|---------------
14------|---------------
-------------------------
-------------------------

and in case anyone is wondering this is part of welcome home sanitariums...its a few lines down, but heres what im looking at
http://www.ultimate-guitar.com/tabs/m/metallica/welcome_home_sanitarium_ver2_tab.htm
#2
roll your middle finger down to play the 14s

hit the 13 with your index, do the 12 and 10s with your now free middle and ring finger then pull them up to do the 13 and 12.
#4

-----------12--|--10--12------10---
--------13-----|------------13----12
----14---------|----------------------
14-------------|----------------------
----------------|----------------------
----------------|----------------------
R    P   M  I\      I      M    R   I   M



I = index
M = middle
R = ring
P = pinkey


I's slide the index down from 12 to ten at the bar there
Quote by Sir-Shoelace
Sir Shoelace is a sexy, sexy man.
#6
yes, its sanitarium. in my opinion, a couple notes may be off. I'll edit this post with the way i play it in a few.
--edit- that took longer than expected... anyway, its not just the fingerings that are different, some of the notes differ as well.

|-------------------------------------------------------15-17--17-
|---------------------------------------------15-17------------
|---------11--12---------------12--14-16----------------------
|----------------14-----14-------------------------------------
|-----14--------------------------------------------------------
|-12-------------------------------------------------------------
   M   P  I   M  P        P     I   RsR        MsM       IsI     I

|------------------------------------------------------------
|--20--20-19-17---17-19-----17-19-17-----17--------------
|--------------------------------------19---19--17--16------
|------------------------------------------------------------
|------------------------------------------------------------
|------------------------------------------------------------
    P   P  R  I    IhR       IhR I     R I  P  M   I

|--------------------------------------------------
|--------------------------------------------------
|--16-17-16------------------------------------
|------------19--17--16------------------------
|--------------------------17-----17--19-------
|------------------------------19----------------
    IhMpI     P  M   I     M    P  MhR

|-----------19---19------------------17--
|-------17-----------17-------------------
|---16-------------------16-----14-------
|--------------------------------------------
|--------------------------------------------
|--------------------------------------------
     I  M   P      P  M   I       I   P

|--17-15-14-----------------------------------------------
|---------------17-15-14----------------------------------
|----------------------------16-14------------------------
|-------------------------------------17-(19)------(17)---
|---------------------------------------------------------
|---------------------------------------------------------
    P  M  I     P  M  I       R  I     R (bend)

|------------------------------------------------
|-----------------17--15-17-15--------------
|------------16-------------------17--16-----
|--14--17-------------------------------------
|-----------------------------------------------
|-----------------------------------------------
   I    P    R    P    MhPpM      P    R      

|------------5---------3-------
|-------------------------------
|---------6---------4---------6--
|------7---------5---------7-------
|-----------------------------------
|-----------------------------------
       R  M  I   R  M  I   R  M


Last edited by black_box at Aug 31, 2006,