#1
This is a classical piece titled Koyunbaba (the presto movement) but Im not sure how to play this with my picking hand. Which fingers should I use?


|----------------------------------------||
|----------------------------------------||
|*--0h-5--5--5p-0-----0h-3--3--3p-0-----*||
|*-----------------0-----------------0--*||
|----------------------------------------||
|----------------------------------------||
       4                 2


--------------------------------------|
--------------------------------------|
--0h-5--5--5p-0-----0h-7--7--7p-0-----|
-----------------0-----------------0--|
--------------------------------------|
--------------------------------------|
     2                 2


-----------------------------------------|
-----------------------------------------|
--0h-8--8--8p-0-----0h-10--10--10p-0-----|
-----------------0--------------------0--|
-----------------------------------------|
-----------------------------------------|
     2                 2


--------------------------------------------|
--------------------------------------------|
--0h-12--12--12p-0-----0h-13--13--13p-0-----|
--------------------0--------------------0--|
--------------------------------------------|
--------------------------------------------|
     2                 2


Originally Posted by guitar_freak333
I dont like death metal, I just see it as a bunch of hairy men playing the same riff over and over again exetremely fast.
#2
It's only on two strings, so I don't really think it matters too much. I would use my pointer and middle fingers, if I were to play it, though.
: : Guitars
Epiphone Les Paul Custom Black Beauty
Ibanez Acoustic-Electric
Fender Black Strat
: : Effects
Boss CH-1 Super Chorus
Visual Sound Jekyll & Hyde Distortion & Overdrive
Dunlop Crybaby
Fender Tuner
#4
it really doesnt matter...as long as u use 2 fingers and its comftarble ur doing it fine...now stop the stupid threads
#5
^I disagree theyre not stupid, people are just looking for advice, and theyre called index fingers.
#7
Maybe I should have mentioned that this is played lighting mother****ing fast. Like fast to the point of tiny differences in technique could lead to massive differences in playing.
Originally Posted by guitar_freak333
I dont like death metal, I just see it as a bunch of hairy men playing the same riff over and over again exetremely fast.
#8
I play this passage as if i was playing tremolo. ami on the on the g string (or in this case g#) and p on the d (c# string)

Hope that helps