#1
ok heres tha deal dudes.....ive ben workin on tha solo for seize the day by a7x and theres 2 parts i kaint get....1st iz the breakdown rite here
e|--------------------------------------------
B|-18-15--------------------------------------
G|------17-14-12----14-12---------------------
D|---------------14-------15-12-12-----------
A|-----------------------------------12-13-15- its fast alternat pickin and i kaint figure out a picking pattern....then the sweepz
e|--18-13-------------13-18-13-----------13-17-12-----------12-17----------12-|
B|--------14--------14--------14----------14--------13----------13----14--------14---|
G|----------15----15------------15------15------------14------14--------15-----15-----|
D|-----------15--15---------------15--15----------------14--14-----------15--15-------|
A|-------------16--------------------16----------------------15----------------16---------|
E|------------------------------------------------------------------------------------|.....i need an idea on how to pik em....l8erz \m/ \m/