#2
-12-13-12h13p12------------12--------------------------------------------------------------------------
------------------------15p13------13-15h17p15-13-15-12h13-12h13p12-------------------------------------------------
-------------------------------------------------------------------------------------------14p12---------------

Ok I am trying to play this one part to November Rain and it is near the end of the first solo. Its about 80bpm on guitar pro 5 and I cannot figure out how I can play the rest after the 12thfret string E the same speed as before...can anyone help? by the way 15 hammer 17 and pull off 17 to 15 is 15h17p15. Its very hard to get down to 17 playing what is before this part at the same speed...
#3
have you tried playing it at a slower tempo. get the basic pattern down first practice it, then go faster until you get up to the songs tempo
#4
-12-13-12h13p12-----------12-----------------------------------------------------------------
-----------------------15p13------13-15h17p15-13-15-12h13-12h13p12----------------
-------------------------------------------------------------------------------------------14p12---
_1__2_1__2 _ 1_3__2__ 1_2_3 _4__ 3 _2_ 3_ 1__2_ 1_ _2_ 1__3__1

as with a lot of slash's stuff. sit your hand in one spot and learn to use all 4 fingers. its not that hard.

edit: hard to space that crap out right to be readable.
Last edited by _Sanitarium_ at Sep 3, 2006,
#5
-12-13-12h13p12-----------12-----------------------------------------------------------------
-----------------------15p13------13-15h17p15-13-15-12h13-12h13p12----------------
-------------------------------------------------------------------------------------------14p12---

_1__2_1__2 _ 1_3__2__ 1_2_3 _4__ 3 _2_ 3_ 1__2_ 1_ _2_ 1__3__1