#1
Can you guys help me with the Ring of Fire strumming pattern I can't seem to get it right .
#2
just listen to the song and think of the beat of the song the njust try it!!
[highlight]MY GUITAR[/highlight]
Quote by TheAmaranth
I once broke a G-String while fingering an A minor.

A recent study shows that 92% of all teenagers have moved on to rap music. Put this in your sig if you are one of the 8% who stayed with real music.
#3

     H           E  S S S S E     E  E     E  S S S S E     E  S S S S E   
E||-----------|--3--3-3-----3--|--------|--3--3-3-----3--|--3--3-3-----3--|
B||-----------|--3--3-3-----3--|--1--1--|--3--3-3-----3--|--3--3-3-----3--|
G||-----------|--0--0-0---0-0--|--0--0--|--0--0-0---0-0--|--0--0-0---0-0--|
D||-----------|--0--0-0---0-0--|--2--2--|--0--0-0---0-0--|--0--0-0---0-0--|
A||-----------|--x--------x-x--|--3--3--|--x--------x-x--|--x--------x-x--|
E||-----------|--3------3-3-3--|--------|--3------3-3-3--|--3------3-3-3--|


  E  S S S S E     E  E     E  S S S S E     E  S S S S E     E  S S S S E   
--3--3-3-----3--|--2--2--|--3--3-3-----3--|--3--3-3-----3--|--3--3-3-----3--|
--3--3-3-----3--|--3--3--|--3--3-3-----3--|--3--3-3-----3--|--3--3-3-----3--|
--0--0-0---0-0--|--2--2--|--0--0-0---0-0--|--0--0-0---0-0--|--0--0-0---0-0--|
--0--0-0---0-0--|--0--0--|--0--0-0---0-0--|--0--0-0---0-0--|--0--0-0---0-0--|
--x--------x-x--|--------|--x--------x-x--|--x--------x-x--|--x--------x-x--|
--3------3-3-3--|--------|--3------3-3-3--|--3------3-3-3--|--3------3-3-3--|


From the guitar pro tab on here.

The chords with an E above them are held for twice as long as the S ones.

If you count 1234 1234, with the G chords, you'll be playing on the 1 34 12 4.

Make sense?
Populus vult decipi. Decipiatur.

Quote by Mistress_Ibanez
It's can be a contraction and genitive case.

Quote by Mistress_Ibanez
If you cut down on these costs students won't learn so well, effecting the "quality"...