#1
Whats a really heavy song with a good melody/riff that isnt insanely hard.. well that said most riffs arent that complicated but you get the point - no shredding because im not that good yet
On the TV, they said Krakatoa erupted at a rate of around 350mph as if thats fast.. they obviously hadn't seen Van Halen's Eruption.
#2
try some black sabbath like electric funeral, crazy train
Epiphone Les Paul Special 2
Samick Corsair (custom evh paint job)
Bever Creek Acoustic
Boss DS-1
Behringer Bx108
Behringer Kx1200
#3
pantera - mouth for war
pantera - shattered
metallica - blackened ^^
metallica - the four hoursemen
megadeth - tornado of souls
megadeth- symphony of destruction
ion maiden - the number of the beast
Hold my breath
as I wish for death
Oh please god wake me
#5
List time!

Testament - Over The Wall
Testament - Souls of Black(The main riff is killer)
Testament - Apocalpytic City
Testament - Trial By Fire
Slayer - Raining Blood
Slayer - Seasons In The Abyss
Slayer - Angel Of Death if you can pick fast
Slayer - Tormentor
Slayer - Face The Slayer
Pantera - Floods
Pantera - Cemetary Gates
Pantera - A New Level
Pantera - 5 Minutes Alone
Pantera - Hard Lines, Sunken Cheeks
Morbid Angel - Maze Of Torment
Morbid Angel - Where The Slime Live(If you have a 7 string/willing to tune down)
Morbid Angel - Lord Of All Fevers And Plagues
Morbid Angel - Chapel Of Ghouls
Meshuggah - Transifixion(If you have a 7 string/willing to tune down)
Megadeth - The Conjuring
Megadeth - Devils Island
Megadeth - Symphony Of Destruction(Super easy riffs)
Megadeth - Sweating Bullets
Bolt Thrower - Mercanary
Bolt Thrower - Zeroed
Bolt Thrower - Powder Burns

That should be good enough for now.
#6
Yeah angel of death owns but the interlude bit is tricky, im gonna go learn the interlude bit now thanks guys im gonna save this list somewhere for later too
On the TV, they said Krakatoa erupted at a rate of around 350mph as if thats fast.. they obviously hadn't seen Van Halen's Eruption.
#7
Quote by Tsunekuni

Testament - Souls of Black(The main riff is killer)

Do you mean the intro riff? Or the bit after it which i call the "main riff"?
Because the intro riff is the ****.
Talk to Erowid

Quote by dead-fish

Tell me when thy band shall return to mark a schedueled performance on my nearest venue's door!
Quoth teh Loomis, "Nevermore".



Member #9 of the "Marty Friedman > You" Club. PM apocalypse13 or altronataku to join.
#8
Heh, all of 'em! The intro riff is awesome too. I love that song, easily in my top 5 Testament songs.

EDIT: I meant this one.


|-------------------------|--------------|---------------|-
|-------------------------|--------------|---------------|-
|-------------------------|--------------|---------------|-
|-3-3-3-3-3-3-3-3-3-3-3-3-|-3------------|---------------|-
|-1-1-1-1-1-1-1-1-1-1-1-1-|-1-2------12\-|-------5--7--5-|-
|-------------------------|---0------10\-|-0-0-0-3--5--3-|-

-----------------|
-----------------|
-----------------|
---------3--6----|
-------5-1--4-5--|
-0-0-0-3---------|

  PM--|                     PM--|           PM--|
--------------|---------|---------------|------------------
--------------|---------|---------------|------------------
------------7-|-6--5----|---------------|------------------
---------3----|-------3-|----------2----|----------3--6--7\
------5--1--5-|-4--3--1-|-------5--4--5-|-------5--1--4--5\
0-0-0-3-------|---------|-0-0-0-3--5--3-|-0-0-0-3----------


|---------------|------------||----------------|-----------
|---------------|------------||o---------------|-----------
|-------------7-|------------||----------------|-----------
|----------3----|-6--------7-||-----------2----|----------
|-------5--1--5-|-4--------5-||o-------5--4--5-|-------5--
|-0-0-0-3-------|----0-0-0---||--0-0-0-3--5--3-|-0-0-0-3---

--------|
--------|
--------|
3---6---|
1---4-5-|
--------|
#9
Try some doom metal,

My Dying Bride's From Darkest Skies is very heavy, and doesn't sound hard at all.
#12
The thing that should not be - Metallica
Quote by sicformyage

me:you like acdc
them:yea i do
me:cool, whats your favorite song,other than back in black
them:i gotta go...


Quote by jordanzio
i love hilary duff and will eventually marry her... she does not know this currently...


#15
Black Sabbath - Black Sabbath
La mayyitan ma qadirun yatabaqqa sarmadi
Fa idha yaji' al-shudhdhadh fa-l-maut qad yantahi

Raptoral judgement upon all our sins
This placid island of ignorance
#16
embody the invisible by in flames, the intro, the verse, the verse is pretty easy but the very end of it theres a kind of fast lick, its very doable though if you break it down at a slower speed

as i am by dream theater, the headbanging part in the beginning
Quote by beadhangingOne
There is no music but metal and muhammad is its prophet.
#17
5 Minutes Alone - Pantera
Goblins Dance - Ensiferum
I'LL PUNCH A DONKEY IN THE STREETS OF GALWAY
#18
yeah nearly any pantera song. Maybe some cannibal corpse, i cum blood is pretty easy.
Last edited by chobbsy at Sep 5, 2006,
#19
Try Hells Bells- AC/DC. I know AC/DC isn't a metal band, but that song definitely is metal.

e|---------------------------------------------------------------|
B|---------------------------------------------------------------|
G|---9---7------5-----7-------9---7------5-------7----------|
D|-----7----7-----5-----7-------7----7------5--------5-5---|
A|-0----------0-----0-----0-0----------0------0------3-2-0-|
E|---------------------------------------------------------------|


you can also try this version


e|-----0---------------------------------------------0------------------------------------------------------|
B|-------------3-----------1---------3----------------------3---------1----------3------------------------|
G|-----------------2----------0---------2----------------------2---------0--------------------------------|
D|-----------------------------------------------------------------------------------------------------------|
A|-0-------0----------0---------0----------0---0------0---------0----------0---------3----2----0------|
E|-----------------------------------------------------------------------------------------------------------|
#20
Blinded by Fear - At the Gates.

Easy but oh so fun.
Quote by tronsbasscool
This is my 5th account and I still havn't made any friends


My Rig
ESP Viper 1000
Crate RFX120

<//////>~
#21
Quote by zObiPhiOn
Try Hells Bells- AC/DC. I know AC/DC isn't a metal band, but that song definitely is metal.

e|---------------------------------------------------------------|
B|---------------------------------------------------------------|
G|---9---7------5-----7-------9---7------5-------7----------|
D|-----7----7-----5-----7-------7----7------5--------5-5---|
A|-0----------0-----0-----0-0----------0------0------3-2-0-|
E|---------------------------------------------------------------|


you can also try this version


e|-----0---------------------------------------------0------------------------------------------------------|
B|-------------3-----------1---------3----------------------3---------1----------3------------------------|
G|-----------------2----------0---------2----------------------2---------0--------------------------------|
D|-----------------------------------------------------------------------------------------------------------|
A|-0-------0----------0---------0----------0---0------0---------0----------0---------3----2----0------|
E|-----------------------------------------------------------------------------------------------------------|


No. I love AC/DC, but that's not a metal song. Die.

Blinded by Fear - At the Gates.




Try Cannibal Corpse - Decency Defied. If you are willing to tune down. It's pretty intermediate.