#1
I like the way that these two chords sound when played in a progression but i need one or two more chords to finish it out and i'm stuck. can someone please lend a hand.


E ----------
B --3---0---
G --0---0---
D --4---9---
A --2---7---
E ----------

I've been told that the first is a G maj7(or is it i'm not too sure) and i know the second is Em. i want to try to keep that kinda minor feel to it.
#2
what about...:

-----------------------------
-3--0--7------------------------
-0--0--7--7----------------------
-4--9--9--7----------------------
-2--7--------------------------
-----------------------------
#3
Try

----------------------------------------
-----3--------0----0-------0--------0
----0-------0-----0-------0-------0--
--4-------9------7------5-------2----
2-------7-------5-----3-------0------
----------------------------------------

play each note slowly it sounds minor
#4
The first chord is Gmaj7/B (according to PowerTab chord dictionary.)

Maybe try:
E|---------|
B|-3-0-0-1-|
G|-0-0-4-0-|
D|-4-9-5-2-|
A|-2-7-3-0-|
E|---------|


Progression is Gmaj7, Em, Cmaj7, Am7
METAR KTIK 040043Z COR RMK TORNADO 1W MOV NE. EVACUATING STATION