#1
Hi, in the song "I Die In Degrees" by All That Remains, there is a melody that goes like this:

D|----------------|----------------|----------------|----------------|
A|----------------|----------------|----------------|----------------|
F|----6-----6-----|6-----6---6-----|----9-----9-----|9-----9---------|
C|--7-----7-----7-|----7-----------|--7-----7-----7-|----7---6-7-6---|
G|9-----9-----9---|--9-----9---9-7-|5-----5-----5---|--5-----------7-|
D|----------------|----------------|----------------|----------------|



If anyone has ever heard the song, it's played at a pretty fast clip and the notes do not ring out (metalcore, duh). I was wondering exactly how you would go about playing it.....would you play it kinda like sweeping where you have to lift each finger after you play each note? Thanks for any help.
#2
I would just hold each fret down like a chord, but if you don't want them to ring just do what you said.
#3
D|----------------|----------------|----------------|----------------|
A|----------------|----------------|----------------|----------------|
F|----6-----6-----|6-----6---6-----|----9-----9-----|9-----9---------|
C|--7-----7-----7-|----7-----------|--7-----7-----7-|----7---6-7-6---|
G|9-----9-----9---|--9-----9---9-7-|5-----5-----5---|--5-----------7-|
D|----------------|----------------|----------------|----------------|


you failed. at life.
Last edited by mikeman at Sep 5, 2006,