#1
Hi everybody, I have a request for you. I am a big fan on FMA, and I love its song Bratja (the one that sounds when the two brothers burn their own house). I found the piano sheet, but I can't play piano... So I was wondering if it's possible to adapt the piano sheet to guitar tabs ^^ It will be very useful! (and there are a lot of people there who want this tab). Thanks in advance!

Bratja - FMA

Thanks again!
#2
Yeah I'll do it in powertab format, is that alright with you?
My God, it's full of stars!
#3
Yes, of course! I prefer GuitarPro, but PowerTab is OK! Thanks a lot! I'll build a monument for you! xD Just for knowing it (I have no hurry), how will it take to adapt?Thanks!

PS: BTW, you are the one who figure out that "cathy acoustic riff" for me! hehe You rock
Last edited by eNoyx at Sep 5, 2006,
#4
lol, I should have it up within 2/3 hours.



EDIT: , nevermind, give me until tomorrow or thursday :-p
My God, it's full of stars!
#5
Whoa, nevermind man. Didn't even notice that the second part was a bass clef lol.

That's literally impossible to play on a guitar, unless you want me to transcribe the bottom part an octave higher than it actually is. But then it'll... lost it's quality.
My God, it's full of stars!
#8
You could play it on 2 guitars (one tuned down) or guitar+bass?
Dear God, do you actually answer prayers?

Yes, but only in a way indistinguishable from random luck or the result of your own efforts.
#9
|-1--0--1-|-0-------|---------|---------|---------|---------|---------|
|---------|----3--1-|---------|-------1-|---------|---------|---------|
|---------|---------|-2-------|-2--0----|-2-------|-2-------|-2-------|
|---------|---------|---------|---------|---------|---------|---------|
|---------|---------|---------|---------|---------|---------|---------|
|---------|---------|---------|---------|---------|---------|---------|


|---------|---------|---------|---------|---------|---------|---------|
|---------|---------|---------|---------|---------|---------|---------|
|-2-------|---------|-0-----2-|---------|---------|---------|-0------2|
|---------|-0-3--2-3|---------|-3-----2-|-0-------|-0-3--2-3|---------|
|---------|---------|---------|---------|---------|---------|---------|
|---------|---------|---------|---------|---------|---------|---------|


|---------|---------|---------|---------|---------|---------|---------|
|---------|---------|---------|---------|---------|---------|---------|
|-2-----0-|-2-------|---------|-0-----2-|---------|---------|---------|
|---------|---------|-0-3--2-3|---------|-3-----2-|-0-----0-|----0--0-|
|---------|---------|---------|---------|---------|---------|-3-------|
|---------|---------|---------|---------|---------|---------|---------|


|---------|---------|---------|---------|---------|---------|---------|
|---------|---------|---------|---------|---------|-------1-|---------|
|---------|---------|---------|-2---0-2-|-0-------|-2-------|-0-------|
|-2---3-2-|-0-------|-0-------|---------|-------0-|---------|---------|
|---------|---------|---------|---------|---------|---------|---------|
|---------|---------|---------|---------|---------|---------|---------|


That's the "lead" part for just the first page. I'm fairly certain it's correct, but still I'm not too good at reading standard notation. You need someone to accompany you with the bass part in order for it to sound good.
#10
Pardon the double post, but here's the second page. I'll keep working on it when I have some spare time.


------------------------------------------------------------------------


|---------|---------|---------|---------|---------|---------|---------|
|---------|---------|---------|---------|---------|---------|----1----|
|-2---0-2-|-0-------|-------0-|---------|-2--0--2-|-0-------|-2-------|
|---------|----0--2-|-3-------|-2-------|---------|-------0-|---------|
|---------|---------|---------|---------|---------|---------|---------|
|---------|---------|---------|---------|---------|---------|---------|


|---------|---------|---------|---------|---------|---------|---------|
|---------|---------|-0-------|---------|---------|-3-----3-|-1-------|
|-0-------|-2---0-2-|-------0-|-2-------|-2-----2-|---------|-------0-|
|---------|---------|---------|---------|---------|---------|---------|
|---------|---------|---------|---------|---------|---------|---------|
|---------|---------|---------|---------|---------|---------|---------|


|---------|---------|----0----|---------|---------|---------|
|---------|---------|-3-----3-|-1-------|---------|---------|
|-2-------|-2-----2-|---------|-------0-|-2-------|-2-----2-|
|---------|---------|---------|---------|---------|---------|
|---------|---------|---------|---------|---------|---------|
|---------|---------|---------|---------|---------|---------|


|---------|---------|---------|---------|---------|---------|
|---------|---------|---------|---------|---------|---------|
|-0---2-0-|---------|---------|------2--|-0---2-0-|---------|
|---------|-3----2--|-0-------|-0-------|---------|-3---2-2-|
|---------|---------|---------|---------|---------|---------|
|---------|---------|---------|---------|---------|---------|


|---------|---------|---------|---------|---------|---------|---------|
|---------|---------|---------|-0-------|---------|---------|---------|
|---------|---------|-2-------|-----2-0-|----0--2-|---------|----2--2-|
|-0-------|-0-------|---------|---------|-3-------|-2-------|-0-------|
|---------|---------|---------|---------|---------|---------|---------|
|---------|---------|---------|---------|---------|---------|---------|


-------------------------------------------------------------------------


|---------|---------|---------|-1--0----|-0-------|---------|-------0-|
|-0-------|---------|---------|-------3-|-------1-|---------|----3----|
|----2--0-|-2-------|-2-------|---------|---------|-2-------|-2-------|
|---------|---------|---------|---------|---------|---------|---------|
|---------|---------|---------|---------|---------|---------|---------|
|---------|---------|---------|---------|---------|---------|---------|


|-1--0--1-|-3-----0-|---------|---------|---------|---------|---------|
|---------|---------|-3-------|-3-------|---------|---------|---------|
|---------|---------|---------|---------|---3-2-3-|-0--2----|---------|
|---------|---------|---------|---------|-0-------|---------|-3----2--|
|---------|---------|---------|---------|---------|---------|---------|
|---------|---------|---------|---------|---------|---------|---------|


|---------|---------|---------|---------|---------|---------|---------|
|---------|---------|-------1-|---------|---------|---------|---------|
|---------|---------|-0-------|-2-----0-|-2-------|---------|-0----2--|
|-0-------|-0-3-2-3-|---------|---------|---------|-0-3-2-3-|---------|
|---------|---------|---------|---------|---------|---------|---------|
|---------|---------|---------|---------|---------|---------|---------|


|---------|---------|---------|---------|---------|---------|---------|
|---------|---------|---------|---------|---------|---------|---------|
|---------|---------|---------|---------|---------|---------|-2---0-2-|
|-3-----2-|-0-----0-|----0--0-|-2---3-2-|-0-------|-0-------|---------|
|---------|---------|-3-------|---------|---------|---------|---------|
|---------|---------|---------|---------|---------|---------|---------|


|---------|---------|---------|---------|---------|---------|---------|
|---------|-------1-|---------|---------|---------|---------|---------|
|-0-------|-2-------|-0-------|-2---0-2-|-0-------|-------0-|---------|
|-------0-|---------|---------|---------|-----0-2-|-3-------|-2-------|
|---------|---------|---------|---------|---------|---------|---------|
|---------|---------|---------|---------|---------|---------|---------|


---------------------------------------------------------------------------


|---------|---------|---------|---------|---------|---------|---------|
|---------|---------|-------1-|---------|---------|-0-------|---------|
|-2---0-2-|-0-------|-2-------|-0-------|-2---0-2-|-------0-|-2-------|
|---------|-------0-|---------|---------|---------|---------|---------|
|---------|---------|---------|---------|---------|---------|---------|
|---------|---------|---------|---------|---------|---------|---------|


|---------|---------|---------|---------|---------|-----0---|
|---------|-3-----3-|-1-------|---------|---------|-3-----3-|
|-2-----2-|---------|-------0-|-2-------|-2-----2-|---------|
|---------|---------|---------|---------|---------|---------|
|---------|---------|---------|---------|---------|---------|
|---------|---------|---------|---------|---------|---------|


|---------|---------|---------|---------|---------|---------|
|-1-------|---------|---------|---------|---------|---------|
|------0--|-2-------|-2----2--|-0---2-0-|---------|---------|
|---------|---------|---------|---------|-3-----2-|-0-------|
|---------|---------|---------|---------|---------|---------|
|---------|---------|---------|---------|---------|---------|


|---------|---------|---------|---------|---------|---------|
|---------|---------|---------|---------|---------|-3-----3-|
|-------2-|-0---2-0-|---------|---------|-------2-|---------|
|-0-------|---------|-3---2-2-|-0-------|-0-------|-0-----0-|
|---------|---------|---------|---------|---------|---------|
|---------|---------|---------|---------|---------|---------|


|---------|---------|---------|-----0---|---------|---------|
|-1-------|---------|---------|-3-----3-|-1-------|---------|
|------0--|-2-------|-2-----2-|---------|-------0-|-2-------|
|---------|---------|---------|-0---2-0-|---------|---------|
|-3-------|-0-------|-0-----0-|---------|-3-------|-0-------|
|------5--|---------|---------|---------|-------5-|---------|


-------------------------------------------------------------------------


|---------|---------|---------|---------|---------|---------|
|---------|---------|---------|---------|---------|---------|
|-2-----2-|-0---2-0-|---------|---------|-------2-|-0---2-0-|
|---------|---------|-3-----2-|-0-------|-0-------|---------|
|-0-----0-|-----0---|---------|---------|---------|---------|
|---------|-5-----5-|-3-----2-|-0-------|-0-------|---------|


|---------|---------|---------|-10------|-10------|-10-5--3-|-1--0----|
|---------|---------|---------|---------|---------|---------|-------1-|
|---------|---------|---------|---------|---------|---------|---------|
|-3---2-2-|-0-------|-0-------|---------|---------|---------|---------|
|---------|---------|---------|---------|---------|---------|---------|
|---------|---------|-0-------|---------|---------|---------|---------|


|---------|---------|----5--3-|-1--0----|---------|-3-------|-0-------|-8-------|
|---------|---------|---------|-------1-|-3-------|---------|---------|---------|
|-2-------|-2-------|-2-------|---------|---------|---------|---------|---------|
|---------|---------|---------|---------|---------|---------|---------|---------|
|---------|---------|---------|---------|---------|---------|---------|---------|
|---------|---------|---------|---------|---------|---------|---------|---------|


|-10------|-10------|---------|---------|---------|---------|
|---------|---------|-3-------|-3-------|---------|---------|
|---------|---------|---------|---------|---------|---------|
|---------|---------|---------|---------|-0-------|-0-------|
|---------|---------|---------|---------|---------|---------|
|---------|---------|---------|---------|---------|---------|


Edit: I added the rest of it. Note that you have to play this in drop D tuning. Enjoy.
Last edited by Cheers at Sep 7, 2006,
#11
Man, I love you! Thanks a lot. You don't know how much this supposes to me. Thanks, really.
#12
Quote by eNoyx
Man, I love you! Thanks a lot. You don't know how much this supposes to me. Thanks, really.


No problem, dude. I've taken a liking to this piece too. If you've got someone with a bass to jam with you, here's the bass part for the first page:

G|-------7--|-------5--|-------3--|-------5--|-------5--|-------7--|-------7--|
D|----7-----|----5-----|----3-----|----5-----|----5-----|----7-----|----7-----|
A|-5--------|-3--------|-1--------|-3--------|-3--------|-5--------|-5--------|
E|----------|----------|----------|----------|----------|----------|----------|


G|-------7--|-------7--|-------7--|-------7--|-------7--|-------7--|-------5--|
D|----7-----|----3--7--|----5--9--|----3--7--|----3--7--|----3--7--|----2--5--|
A|-5--------|-5--------|-5--------|-5--------|-5--------|-5--------|-3--------|
E|----------|----------|----------|----------|----------|----------|----------|


G|-------10-|-------14-|-------7--|-------7--|-------7--|-------7--|-------5--|
D|-3--7--10-|-7--11-14-|----3--7--|----5--9--|----3--7--|----3--7--|----2--5--|
A|----------|----------|-5--------|-5--------|-5--------|-5--------|-3--------|
E|----------|----------|----------|----------|----------|----------|----------|


G|-------5--|----------|----------|----2--2--|----3--3--|----2--2--|----3--3--|
D|----2--5--|---3-7-3-2|----------|----3--3--|----5--5--|----3--3--|----5--5--|
A|-3--------|-5--------|-5--------|----------|----------|----------|----------|
E|----------|----------|----------|-1--------|-1--------|-1--------|-1--------|
#13
Wow, I'm impresses. Submit this to the tabs directory! A lot of people is searching this! You'll become famous for this xD Well, seriously, submit it. (animechords will welcome this very thankfully)