#1
This is the same thing i posted in Tab talk, bu i think this is a more appropriate section

COMMENT IT

btw can u believe this got rejected?


found it pretty hard to send this to ppl via pm, so im just gonna post it. enjoy. if u think its screwed up, odds r ur playing it wrong or strumming it wrong. Ive tested it over and over and its better than any good riddance tabs on here. if u disagree with me i would like some criticism. Sorry if its hard to read. Some numbers r bigger than others so it gets the dashed outa alignment and it may look a little wavy. For example, if u see a G chord but its a little wavy, jus tplay the G normally. enjoy.


-----------------------------------------------------------------------------------------------------------
Good Riddance - Green Day
Tabbed by: halfback_712
-----------------------------------------------------------------------------------------------------------

Email:

Finally, the CORRECT way to play Good Riddance by Green Day.
Please comment.

Tuning: Standard
3
3 3 2 2
0 0 3 3
0 = G x = C 0 =D1 (lol yes, I'm caling it D1) 0 =D2
x 3 0 0
3

0
0
0
2 = Em
2
0

Intro.
e|----------------------------------------------------------------------------|
B|---------------------------------------------------------------------------|
G|----------------------------------------------------------------------------|
D|----------------0---------------------------0-----------------------------|
A|--------------------0---------------------------0--------------------------|
E|---3--3------------------------3--3--------------------------------------|

Verse:x2
e|-----------------------------------------------------------------------------------|
B|---------------------3------------------------------------------------------------|
G|-------------------------0-----------0--------------------------------------------|
D|----0---0----------------------0------------x2----------------------------------|
A|----x---x-----------------------x-------------------------------------------------|
E|----3---3----------------------3-------------------------------------------------|


e|-----------------------------------------------------------------------------------|
B|----------------------3-----------------------------------------------------------|
G|----0---0-------------------0-----0-----0---------------------------------------|
D|----x---x--------------------------x----------------------------------------------|
A|----3---3--------------------------3----------------------------------------------|
E|-----------------------------------------------------------------------------------|

e|-----------------------------------------------------------------------------------|
B|------3---3------3---------------------------------------------------------------|
G|------2---2------2----2----2---2------------------------------------------------|
D|------0---0-----------------0-----------------------------------------------------|
A|-----------------------------0-----------------------------------------------------|
E|-----------------------------------------------------------------------------------|

PreChorus: x2
e|-----------------------------------------------------------------------------------|
B|---------------0----------------------3---3-----3--------------------------------|
G|---0---0-----------0----0----0------2---2-----2---2---2---2------------------|
D|---2---2-----------------2-----------0---0--------------0-----------------------|
A|---2---2-----------------2--------------------------------0-----------------------|
E|-----------------------------------------------------------------------------------|

e|-----------------------------------------------------------------------------------|
B|---------------3------------------------------3-----------------------------------|
G|----0---0---------0---3---0----------------------0-----0------------------------|
D|----x---x--------------x---------0---0--------------0---------------------------|
A|----3---3--------------0---------x---x--------------x---------------------------|
E|-----------------------------------3---3--------------3---------------------------|

Chorus:
e|-----------------------------------------------------------------------------------|
B|-----------------0----------------------3---3-----3------------------------------|
G|---0---0-------------0----0----0------2---2-----2---2---2---2----x2---------|
D|---2---2-------------------2-----------0---0--------------0--------------------|
A|---2---2-------------------2-------------------------------0--------------------|
E|----------------------------------------------------------------------------------|

e|------------------------------------------2----2-----2-------------------------------|
B|----------------0------------------------3----3--------3---3---3-------------------|
G|---0---0------------0---0---0----------2----2------------2------------------------|
D|---2---2-----------------2--------------0----0------------0-------------------=----|
A|---2---2-----------------2-------------------------------------------------====----|
E|-----------------------------------------------------------------=======----------| Time of your...


G C D1 G C D1

Life.....

G C D1 G C D1

So take the photographs...


Em D1 C G Em D1 C G

Tattoo some memories...


Em D1 Em D1 Em D2

It's something unpredictable....

G
Life....


Repeat, but when you get to "It's something unpredictable..." Play Chorus and immediatley after play Verse.

Outro:

e|--------------------------------------3------------------------------=------|
B|-----3-----------------------------0----------------------------------------|
G|-------2------------------------0-------------------------------------------|
D|----------0---0--------------0----------------------------------------------|
A|--------------------------2-------------------------------------------------|
E|------------------------3---------------------------------------------------|


| / slide up
| \ slide down
| h hammer-on
| p pull-off
| ~ vibrato
| + harmonic
| x Mute note
================================================== =============================