#1
Standard Tuning Played on an acoustic at a medium pace
Sorry The Intro, Verse, and Outro are kind of messed up they should be good now


Intro (Finger Picked)
|----2----2----2----2|
|-3----3----2----2---|
|---0----0----2----2-| x2
|2----2----0----0----|
|-----------------------|
|-----------------------|

Verse
|----2------2--------2----------2----|
|-3---3-3----3--2--2-----2---2----|
|---0------0-------2---2----2----2--| x2
|2------2-------0--------0----------|
|-------------------------------------|
|-------------------------------------|

Chorus
|3-33-33-33-333-2-22-22-22-222-2-22-22-22-222-2-22-22-22-222|
|0-00-00-00-000-3-33-33-33-333-3-33-33-33-333-2-22-22-22-222|
|0-00-00-00-000-0-00-00-00-000-2-22-22-22-222-2-22-22-22-222|
|2-22-22-22-222-2-22-22-22-222-0-00-00-00-000-0-00-00-00-000|
|-----------------------------------------------------------------------------------|
|-----------------------------------------------------------------------------------|

Bridge
|3-3333-33333-2-2222-22222-0-0000-00000-3-333------------|
|2-2222-22222-2-2222-22222-1-1111-11111-0-000-2-22222|
|3-3333-33333-2-2222-22222-0-0000-00000-0-000-2-22222| x2
|0-0000-00000-0-0000-00000-2-2222-22222-0-000-2-22222|
|-----------------------------------------3-3333-33333-2-222------------|
|-----------------------------------------0-0000-00000-3-333------------|

Outro
|-----2------2------2------2--|
|-3--3--3---3--2--2--2---2--|
|---0------0-------2-----2----|
|2------2------0------0-------|

Order
Intro
Verse
Chorus
Verse
Chorus
Bridge
Chorus
Verse
Outro
Last edited by TMVolta19 at Sep 13, 2006,
#2
sound pretty good although im not too great at fingerpicking so i dont know exactly how it should sound. but so far so good.


You should check out my bands stuff here --> http://ultimate-guitar.com/forum/showthread.php?t=420180
Dinobot clone of the Predacons Beast Wars Club
PM NightmareXT To Join!

Member #6 of the Geddy Lee fan club - pm RIC4003 to join.
UG spartan number 180