#1
Hi ;-)

Have you seen the tab/chord on "I found out" by John Lennon.

There is a riff, playing through the song.
do you know how it goes, or something similar to it.?
It would be much appreciated

Also, I'm missed more detail on how to play through the verses, ie. rhythm.

- Peace out V
- Frostbone
#2

e ---------------------------------------------------
b ---------------------------------------------------
g ---------------------------------------------------
d ---------------------------------------------------
a -----0-3-0--------0-3-0-------0-3-0-3-3-0-3-0---0--
e -0-3--------0-0-3---------0-3-----------------3----


is this right?
#3
Quote by xX*Zeppelin*Xx

e ---------------------------------------------------
b ---------------------------------------------------
g ---------------------------------------------------
d ---------------------------------------------------
a -----0-3-0--------0-3-0-------0-3-0-3-3-0-3-0---0--
e -0-3--------0-0-3---------0-3-----------------3----


is this right?




anyway, wrong forum
My Spanish Hearts