#1

-----------------
-----------------
-----------------
-----------------
-9------9-7-5-4--
---10-7----------

-----------------
-----------------
-----------------
----------------7-
-9------9-7-5----
---10 7----------
here is a riff i just made up in like 5 minutes...i think it sounds kind of cool.
#2
It sounds alright, but instead you could just go



------------------------
-----------------------
-----------------------
-----------------------
-9-------9-7----------
---10-7-----10-9----

-----------------------
-----------------------
-----------------------
------------------7----
-9-------9-7----------
---10-7-----10-------



I dunno, it just makes it easier.

And have you played Chrono Trigger?