#1
I started learning to sweep a while ago and I got to the point where I can sweep the C chord pretty well.
But I need help with these:

--------12-17-12----------19-15------15
------14--------14-------------15--15--
----14------------14-------------16----
--14----------------14-----------------
12--------------------12---------------
---------------------------------------

Basically I can't really barre-sweep very well and I wanted to know if there are any videos on how to do it, or ant
#2
Quote by aeginotu
I started learning to sweep a while ago and I got to the point where I can sweep the C chord pretty well.
But I need help with these:

--------12-17-12----------19-15------15
------14--------14-------------15--15--
----14------------14-------------16----
--14----------------14-----------------
12--------------------12---------------
---------------------------------------

Basically I can't really barre-sweep very well and I wanted to know if there are any videos on how to do it, or ant

This is a pretty popular sweeping video
Ibanez SA160 electric

Old Ventura Classical
#3
really all your gonna wanna do is just roll your 3rd finger across for the 14s then hammer from 12 to 17 then get the last 12 when you start comin up with your pick then roll your 3rd finger across the 14s again.

i dont know if that helpful. its really just a practise thing
Vocals Wanted For:
Tool-Sober, Aenema
Led Zeppelin-The Ocean
Audioslave-Cochise
Sublime-Santeria
Rush-Tom Sawyer, Fly By Night, Limelight
Assorted Original Acoustics

PM if interested