#1
hey dudes, this is a song a wrote whena wos on vacation, it is very inspired by a7x, i wrote most of the guitar parts to it on an acoustic gutiar as i didnt have an elec. with me, but when i got abck home i played them on the elec. nd they sounded pretty good. Tuning in drop D

yellow=clean
blue=distortion
w=whole note
q=quarter note
s=sixteenth
h=minim
f=semibreve
*=triplets
b=bend
in bold=scream lyrics

|-------line 1---------------------|------line 2-----------------------------------|
ssssssss q q q q q ss q ss q q q q
|--00000000-0-0---0---0-----|---0-00-0-00-0-0-0-0----------------------|
|--00000000-0-0---0---0-----|---0-00-0-00-0-0-0-0----------------------|
|--77777777-7/12-12-12----|---9-99-9-99-9-7-7-7----------------------|
|--55555555-5/10-10-10----|---7-77-7-77-7\5-5-5----------------------|
|----------------------------------|------------------------------------------------|
|----------------------------------|------------------------------------------------|




|-------line 3+4-----------------|----------------line 5=6----------------------|
ssss sss s sss s sss s ssss ssss s*s*s* s s s s q
|----------------------------------|------------------7h10h7-----7--------------|
|----------------------------------|----------------------------10----10-7-------|
|----------------------------------|------------------------------------------9b---|
|----------------------------------|------------------------------------------------|
|--0000003h5003h5003h5-|--00000000----------------------------------|
|--0000003h5003h5003h5-|--00000000----------------------------------|


Whydon't you take it all~
Take it all away.
Rip it from the seams,
Discard by all means,
Take it all away,
Away from Me~


|-------------------------------------------verse 2----------------------------------------------------|
|-------line 1---------------------|------line 2-----------------------------------|
ssssssss q q q q q ss q ss q q q q
|--00000000-0-0---0---0-----|---0-00-0-00-0-0-0-0----------------------|
|--00000000-0-0---0---0-----|---0-00-0-00-0-0-0-0----------------------|
|--77777777-7/12-12-12----|---9-99-9-99-9-7-7-7----------------------|
|--55555555-5/10-10-10----|---7-77-7-77-7\5-5-5----------------------|
|----------------------------------|------------------------------------------------|
|----------------------------------|------------------------------------------------|




|-------line 3+4-----------------|----------------line 5=6----------------------|
ssss sss s sss s sss s ssss ssss s*s*s* s s s s q
|----------------------------------|------------------7h10h7-----7--------------|
|----------------------------------|----------------------------10----10-7-------|
|----------------------------------|------------------------------------------9b---|
|----------------------------------|------------------------------------------------|
|--0000003h5003h5003h5-|--00000000----------------------------------|
|--0000003h5003h5003h5-|--00000000----------------------------------|


you know i'll get it back~
Get it all back one day.
In it's rightful place,
wipe that grin off your face,
Take it all back,
Back to ME~

guitar pattern for next verse has been written on guitar pro, if u would like to hear it just message me

I miss it so much i have become,
Insomniac, my mind is numb.
I cannot hide, i cannot run.
Can-not-see-why~
Waiting for some clarity,
To show you what you mean to me.
What can you see, what can i be?
So-much-mo-re~

|-----------------------------chorus------------------------------------------|
|--line 1----|----line 2--|---line 3---|------line 4-------|--line 5--|
|-------------|-------------|-------------|-------------------|-----------|
|-------------|-------------|-------------|-------------------|-----------|
|-5------5/7|-7------3/5|-------------|--------------------|-----------|
|-5------5/7|-7------3/5|--------3h5|--5555-6503b---|-0--------|
|-3------3/5|-5------1/3|-3------3h5|-5555-6503b---|-0--------|
|----00------|----00-----|----00--3h5|-5555-6503b---|-0--------|


Your trust is an arrow,
impaled right throught he heart.
Fired from the bow,
Of two worlds apart~
You see right through me

Take it all away, take it all away, GO! x2

small breakdown, once again if you wish to hear the guitar pro for it, message me.

same guitar part as verse 1 + 2

Why Don't you take it all?
Make me fall to pieces.
Crush my dignity,
encourage my insanity
trample all over me,
Why don't yopu take it~

You Know i'll get it back,
Sooner than you think.
All the **** you said,
To mess with my head,
And all the lies i bled,
Will-come-back-to-me~

same guitar part as verse 3

I wanted to know, how hard you try?
Believed you so much, my conscience died.
No one answers my silent cries,
Cries-for-free-dom~
Deprived me of this life of mine,
Abused me till my sun don't shine,
I still crawl back, every time,
I-am-add-ic-ted~

Chorus

Take it all away, take it alla way go!

small breakdown again
dual guitar solo

bridge, section 2 tabbed on guitar pro, messgae to hear it.
section 1
No longer can you tell me what to do.
I just take a good look at you.
Look at what you've done to me,
Look at what you took from me~
section 2
Stole from me,
under my nose
trampled me
under your toes
assaulted me
does it show?
why you did it
no-one know.

tested me,
was i good enough?
Neglected me
In the dark!
I never dreamed
It would go so far,
We could get to here,
And shed so many tears.

chorus

Take it all away take it all away, GO! x2
I cannot see, Why you will not GO!
Take it all away, take it all away GO!

guitar solo
Last edited by a_7_x at Sep 23, 2006,