#1
ok this is actually the very first riff I made up, this time i kno its not a song ive heard like with Buck Dich, or is it? o well ill find out, its extremely easy but sounds good, the start of a song

drop d

-----------------------------------
-----------------------------------
-----------------------------------
----4--0--2--0--4--0--2/5----------
----4--0--2--0--4--0--2/5----------
----4--0--2--0--4--0--2/5----------


lol very easy, but has a wierd beat, ill have to record it for you to kno the tune of it, dont play it fast its kinda slow , i cant tell you how slow cuz i dont have a metronome

i will add more soon, atleast this will be here for when i add on

Another wierd lil thing i made that sounds cool
drop d again

-----------------------------------
-----------------------------------
----------13------------12---------     Repeat, have on high distortion and make it ring alot
----12--------12--11---------------      give it a creepy feel to it
-----------------------------------
-----------------------------------


its played at a semi quick pace, and from the 12-11 make it quicker there almost like a slide

and a funny lil tune


-----------------------------------    x3           
-----------------------------------                       
-------------10--------------------                            
-----9h10--------------------------                               
-----------------------------------                                       
-----------------------------------      

-----------------------------------    x3
-----------------------------------
--------------12-------------------      
----11h12--------------------------
-----------------------------------                played very lightly and very lil distortion
-----------------------------------      

then it gets heavy
                              x3                                                x3
-----------------------------------|-----------------------------------|
-----------------------------------|-----------------------------------|
-----------------------------------|-----------------------------------|
---0--1--2-------------------------|---3--4--5-------------------------|
---0--1--2-------------------------|---3--4--5-------------------------|
---0--1--2-------------------------|---3--4--5-------------------------|    reapeat

play quick





play very quickly,

-----------|---------|-----------------------
-----------|---------|-----------------------
-----------|---------|-----------------------
-----------|---------|-----------------------
---0--0--5-|-0--0--3-|-0--0--5--2--3--2--0---
---0--0--5-|-0--0--3-|-0--0--5--2--3--2--0---

pause slightly at those intervals (the | that separates, use it sorta like a pause symbol)

I AM THE DEMUN OF METAL BWAHAHA
Bwahaha Feel My PoWeRgrrr
Member2BoycottMcdonaldsGroup pm rockergurl09 2join
Verdammt Zuhalter, Abhanden kommen!
demun: D,ee,Muhn-similar to a demi-god only opposite as a half human half demon.
Last edited by Demun at Sep 30, 2006,
#3
no way! ive never thought someone would think thats actually good! ty
I AM THE DEMUN OF METAL BWAHAHA
Bwahaha Feel My PoWeRgrrr
Member2BoycottMcdonaldsGroup pm rockergurl09 2join
Verdammt Zuhalter, Abhanden kommen!
demun: D,ee,Muhn-similar to a demi-god only opposite as a half human half demon.