#1
Hiya, I've been a reader of this site almost daily for ages now but I think this is my first post.

I'd like help with the tab below please, I just don't know how to get my fingers into the placing at the start of the song so that it's easy to switch to the next.

Can you help please?

Thanks

Billy Talent - Sympathy
#3
this is te intro:


e|--------------------------------------------------------------------------------|
B|----------8-8-8-8----10-10-10-10----11-11-11-11----8-8-8----10-10-10----11--11--|
G|----------8-8-8-8----8--8--8--8-----12-12-12-12----8-8-8----8--8--8-----12--12--|
D|--10\-----8-8-8-8----10-10-10-10----12-12-12-12----8-8-8----10-10-10----12--12--|
A|--10\-----6-6-6-6----8--8--8--8-----10-10-10-10----6-6-6----8--8--8-----10--10--|
D|--10\---------------------------------------------------------------------------|


INTRO:

e|-------------------------------------6-6-6-6-------------------------6--6\------|
B|-----------8-8-8-8----10-10-10-10----8-8-8-8----8-8-8----10-10-10----8--8\------|
G|-----------8-8-8-8----12-12-12-12----7-7-7-7----8-8-8----12-12-12----7--7\------|
D|--10\------8-8-8-8----13-13-13-13----5-5-5-5----8-8-8----13-13-13----5--5\------|
A|--10\------6-6-6-6----10-10-10-10----5-5-5-5----6-6-6----10-10-10----5--5\------|
D|--10\-----------------10-10-10-10----5-5-5-5-------------10-10-10----5--5\------|

                            H
e|--5----------------1------3-----------------------------------------------------|
B|--6------3--3------3------4-----------------------------------------------------|
G|--5------3--3------2------3-----------------------------------------------------|
D|--3------3--3------0------1-----------------------------------------------------|
A|--3------1--1------0------1-----------------------------------------------------|
D|--3----------------0------1-----------------------------------------------------|



***************************
* Fingerings
***************************


e|-----------------------------------------------------------------------------|
B|---------M-M-M-M----P--P--P--P-----M--M--M--M-----P-P-P----P--P--P-----M--M--|
G|---------P-P-P-P----I--I--I--I-----P--P--P--P-----P-P-P----I--I--I-----P--P--|
D|--I\-----R-R-R-R----R--R--R--R-----R--R--R--R-----P-P-P----R--R--R-----R--R--|
A|--I\-----I-I-I-I----I--I--I--I-----I--I--I--I-----I-I-I----I--I--I-----I--I--|
D|--I\-------------------------------------------------------------------------|


INTRO:

e|--------------------------------M-M-M-M----------------------M--M\------|
B|----------P-P-P-P----I-I-I-I----P-P-P-P----P-P-P----I-I-I----P--P\------|
G|----------P-P-P-P----R-R-R-R----R-R-R-R----P-P-P----R-R-R----R--R\------|
D|--I\------P-P-P-P----P-P-P-P----I-I-I-I----P-P-P----P-P-P----I--I\------|
A|--I\------I-I-I-I----I-I-I-I----I-I-I-I----I-I-I----I-I-I----I--I\------|
D|--I\-----------------I-I-I-I----I-I-I-I-------------I-I-I----I--I\------|

                            H
e|--R----------------I------R-----------------------------------------------------|
B|--P------P--P------R------P-----------------------------------------------------|
G|--M------P--P------M------M-----------------------------------------------------|
D|--I------P--P------0------I-----------------------------------------------------|
A|--I------I--I------0------I-----------------------------------------------------|
D|--I----------------0------I-----------------------------------------------------|

I = Index finger
M = Middle finger
R = Ring Finger
P = Pinky finger
Been away, am back
#5
if you menan the 8 10 part, you just put the pinky and ring finger in 10, and do a barre at 8 with the index
||||||||||||||||||||
||||||||||||||||||||
||||||||||||||||||||