#3
Sure! I'm so glad that you like it!

I can upload the Guitar Pro file for it if you like.. It's just, i suck at making Guitar Pro files, and my main riff area is red. lol.


 
Guitar 1
    Q    E  Q    Q    E   Q     Q    E   Q    Q     
E||-------------------------------------------------|
B||-------------------------------------------------|
G||--0----0--x----0----x---0-----0------------------|
D||--9----9--x----9----x---0-----0------------------|
A||--7----7--x----7----x--10----10--------7---------|
E||--0----0--x----0----x---8-----8----8p------------|


  Q    E  Q    Q    E   Q     Q    E   E            
------------------------------------------|-------||
------------------------------------------|-------||
--0----0--x----0----x---0-----0-----------|-------||
--9----9--x----9----x---0-----0-----------|-------||
--7----7--x----7----x--10----10--------7--|-------||
--0----0--x----0----x---8-----8----8h-----|-------||

Guitar 2
     Q    Q    Q    Q    Q    Q    H         
E||-----------------------------------------|
B||-------0--------------3------------------|
G||------------0--------------0-------------|
D||--4--------------4-----------------------|
A||--------------------------------7--------|
E||--------------------------------8--------|


  Q    Q    Q    Q    Q    Q    H                  
-----------------------------------------|-------||
-------0--------------3------------------|-------||
------------0--------------0-------------|-------||
--4--------------4-----------------------|-------||
--------------------------------7--------|-------||
--------------------------------8--------|-------||