Mister.Y
something something
Join date: Mar 2005
788 IQ
#1
i came up with this nice little tune today, i was wondering what you guys think of it.
crit4crit

it sounds best on an acoustic guitar

Verse:

e|---------0-----------------------0-----------------------------------------|
B|-------1---1---1------------1---------1------------------------------------|
G|-----0-------0---0-----0---------------------------------------------------| 2x
D|---------------------2---2----2----2---------------------------------------|
A|--3------------------------------------------------------------------------|
E|---------------------------------------------------------------------------|

e|---------0-----------------------0-----------------------------------------|
B|-------0---0---0------------0---------0------------------------------------|
G|-----0-------0---0-----0---------------------------------------------------| 2x
D|---------------------2---2----2----2---------------------------------------|
A|--2------------------------------------------------------------------------|
E|---------------------------------------------------------------------------|

e|---------0-----------------------0-----------------------------------------|
B|-------1---1---1------------1---------1------------------------------------|
G|-----2-------2---2-----2---------------------------------------------------| 2x
D|---------------------2---2----2----2---------------------------------------|
A|--0------------------------------------------------------------------------|
E|---------------------------------------------------------------------------|

e|---------3-----------------------3-----------------------------------------|
B|-------3---3---3------------3---------3------------------------------------|
G|-----0-------0---0-----0---------------------------------------------------| 2x
D|---------------------0---0----0----0---------------------------------------|
A|---------------------------------------------------------------------------|
E|--3------------------------------------------------------------------------|


Chorus:

e|---------0-----------------3--------0--------------------------------------|
B|-------1---1---1---------3--------3----------------------------------------|
G|-----0-------0---0-----0--------0------------------------------------------|
D|---------------------------------------------------------------------------|
A|--3---------------------------2--------------------------------------------|
E|---------------------3-----------------------------------------------------|
									     |  2x
e|---------0-----------------------0-----------------------------------------|
B|-------1---1---1------------1---------1------------------------------------|
G|-----2-------2---2-----2---------------------------------------------------| 
D|---------------------2---2----3----2---------------------------------------|
A|--0------------------------------------------------------------------------|
E|---------------------------------------------------------------------------|
steve1982
Registered User
Join date: Oct 2006
21 IQ
#3
Looks good, looks very much like "Time of our lives" and "House of the rising sun" mixed together sounds good though