Cypher_09
Registered User
Join date: Aug 2006
75 IQ
#1
|---------0-------0--------------0------0---------------0------0----------------0------0------------
|----1--------1------------1--------1-------------1--------1--------------0--------1---------------
|----2----------------------0----------------------2-----------------------0-------------------------
|----3----------------------2----------------------3-----------------------0-------------------------
|------------------------------------------------------------------------------------------------------
|------------------------------------------------------------------------------------------------------ X2


|--------------------------------------------------------------------------------------------------------- |-------|
|---------1-------- ----------------1---------------------------1--------------------------0------------ |-------|
|--------------------------------2------2------------------0-----------0--------------0-------0-------- |3-----|
|---- 2-------2-----------2-------------------------2---------------------------0--------------------- X1 |3-----|
|----3--------------------------------------------------------------------------------------------------- |5-----|
|-------------------------------------------------------------------------------------------------------- |------| (Power Chord)