Pr0phecy_X
Driven by suffering
Join date: Jun 2004
159 IQ
#1
It's been atleast a year or so since ive posted anything...

Here it goes, this is a song i wrote today while fiddling around, the beginning was worked out but everything after including the solo were perfected from winging them

The Mp3 recording can be downloaded from here...

http://www.geocities.com/pr0phecy_x/answer.mp3


[e:|----------------------- ----|
b:|--------------6b------  ----|
G:|------------7----7-6v~  ----|
D:|--------7h8------------ ----|
A:|----5h6---------------- ----|
D:|--0-------------------- ----|

e:|-----------------------||------------------------- --|
b:|------------------6----||------------------6------ --|
G:|--------------------7--||--------------------7---- --|
D:|-----------------------||----------------------7v~ --|
A:|--3p0-0--3h4-3-0-------||--3p0-0--3h4-3-0--------- --|
D:|--3p0-0--3h4-3-0-------||--3p0-0--3h4-3-0--------- --|


e:|---------------------------------|
b:|---------------------------------|
G:|---------------------------------|
D:|---------------------------------|
A:|--12p0-0-10h12-8-8p0-0-15\13-12--|
D:|--12p0-0-10h12-8-8p0-0-15\13-12--|


e:|------------|
b:|------------|
G:|------------|
D:|------------|
A:|--888-77-5--|
D:|---------0--|

[Solo]

e:|---------------------------------------------------------|
b:|-------------------------------------------10------------|
G:|-------------------------------------12h14----12\10-9p7--|
D:|--------7-7h8-5-5h7h8/10-10h12h14-15---------------------|
A:|--5h7h8--------------------------------------------------|
D:|---------------------------------------------------------|

e:|--------------------------------------------------------|
b:|--------------------------------------------------------|
G:|--7/9/10-10h12p10h12p10-9h10p9h10p9-7h9p7h9p7-10p9-7v~--|
D:|--------------------------------------------------------|
A:|--------------------------------------------------------|
D:|--------------------------------------------------------|
                                                       =
                                                     
                                                      P.H
What I Have In My Heart I'll Take To My Grave.
Pr0phecy_X
Driven by suffering
Join date: Jun 2004
159 IQ
#3
Only 1 replie?
What I Have In My Heart I'll Take To My Grave.
antiflag125462
God
Join date: Feb 2006
1,336 IQ
#4
e:|---------------------------------------------------------|
b:|-------------------------------------------10------------|
G:|-------------------------------------12h14----12\10-9p7--|
D:|--------7-7h8-5-5h7h8/10-10h12h14-15---------------------|
A:|--5h7h8--------------------------------------------------|
D:|---------------------------------------------------------|

=

e:|---------------------------------------------------------|
b:|-------------------------------------------14------------|
G:|-------------------------------------12h14----12\10-9p7--|
D:|--------7-7h8-5-5h7h8/10-10h12h14-15---------------------|
A:|--5h7h8--------------------------------------------------|
D:|---------------------------------------------------------|

antiflag125462
God
Join date: Feb 2006
1,336 IQ
#6


e:|---------------------------------------------------------|
b:|-------------------------------------------10------------|
G:|-------------------------------------12h14----12\10-9p7--|
D:|--------7-7h8-5-5h7h8/10-10h12h14-15---------------------|
A:|--5h7h8--------------------------------------------------|
D:|---------------------------------------------------------|

=

e:|---------------------------------------------------------|
b:|-------------------------------------------------------|
G:|-------------------------------------12h14-14-12\10-9p7--|
D:|--------7-7h8-5-5h7h8/10-10h12h14-15---------------------|
A:|--5h7h8--------------------------------------------------|
D:|---------------------------------------------------------|