trevonator
Guitarist
Join date: Jan 2006
58 IQ
#1
You can learn it too if you like...it's really just messing around with a chord.
I put my guitar up a step with a capo but it still sounds nice without.

|--------------------------------------------------------------------|
|---------------------1r0------4r0-------1r0-------------------------|
|------------------0-------0---------0---------0-----------------------|
|------------0h2----------------------2------------------------------|
|---0h2h3----------------------------------------------------------|
|---------------------------------------------------------------------|


And I have this other thing that kinda cool, but the second chord doesn't work...hell if it's even one, suggestions to substitute would be appreciated!
It's very messy and I'm real bad with my theory, I apologize :-(

G/ ?/ Em add?/ Cadd9

-------------3--s-----------------------3---s---------------------------3-----------------------------3
-------------3--s-----------------------3---s---------------------------3-----------------------------3
-------------0--s-----------------------0---s---------------------------0-------------------0--------0
-------------0--s----------0-----------0---s---------2r0--------------2---------------------0------2
-3r2r0-----2--s--------0----2r0-----0---s---------------2r0----0--2----------3r23--------2----3
---------3--3--s------2------------3--2---s--------------------3-----0-----------------------------0


Uhmm yes...do criticize on that on please, or comment...


Thanks,

Trevor
Last edited by trevonator at Nov 7, 2006,