AC/DC10
Registered User
Join date: Aug 2005
549 IQ
#1
Classic Rock 101 got its listeners to sent in their top 3 favorite classic rock songs into them, and made this list according to how many votes each song got

So here it is, the Top 1001 Classic Rock songs of all time


http://www.rock101.com/music/song_lists/top_1001_songs.cfm
e|----------5-------7-5h7p5---5--
B|-------5----8p5-------------8---8p5--
G|-5h6-----------------------------------7b9r--p5---5b--
D|-----------------------------------------------------7-----7-7~~~
rhymeswith suck
The Last Sucker
Join date: Jun 2006
341 IQ
#2
What, tou're from Vancouver, holy crap, you're the first person from Vancouver I've ever seen on here besides me!

Member Q-Tron of the EHX Users Guild
AC/DC10
Registered User
Join date: Aug 2005
549 IQ
#3
lol ive seen a few, only because i made a thread asking if anyone knew of any good concerts coming here
e|----------5-------7-5h7p5---5--
B|-------5----8p5-------------8---8p5--
G|-5h6-----------------------------------7b9r--p5---5b--
D|-----------------------------------------------------7-----7-7~~~
rhymeswith suck
The Last Sucker
Join date: Jun 2006
341 IQ
#4
I saw Aerosmith with Motley Crue a couple weeks back, and it was awsome, I'm go'in to Billy Talent in January. I missed out on Eric Clapton, but my friend is going.

Member Q-Tron of the EHX Users Guild
HoplessNewb
Rock On Fred Penner
Join date: Apr 2005
32 IQ
#5
Im from Chilliwack, near vancouver.
Ibanez RG270
Gretsch Electromatic
Randall RG100
Brand X 25 watt
Digitech RP80
Member #4 of Dont Watch MTV Cult
AC/DC10
Registered User
Join date: Aug 2005
549 IQ
#6
i went to aerosmith and motley crue too, and you can tell im going to clapton by my sig

lol i guess i should stop spamming my own thread
e|----------5-------7-5h7p5---5--
B|-------5----8p5-------------8---8p5--
G|-5h6-----------------------------------7b9r--p5---5b--
D|-----------------------------------------------------7-----7-7~~~
Nite27
Duke of Prunes
Join date: Mar 2005
118 IQ
#7
Im in White Rock.. about an hour from Vancouver =P


and whats with that list?! Zappa's only song was "Joes Garage" and it didnt even crack the top 700? shame.
AC/DC10
Registered User
Join date: Aug 2005
549 IQ
#8
lol there was only one guy who guessed pink floyd would be #1

oh and im in coquitlam
e|----------5-------7-5h7p5---5--
B|-------5----8p5-------------8---8p5--
G|-5h6-----------------------------------7b9r--p5---5b--
D|-----------------------------------------------------7-----7-7~~~