#1
Aight, I need the tab for the killer guitar solo at the end of this song, after the pause. I've tried to tab it out myself, but I don't think it's quite right.

Sooo... please pretty please.
#2

e|-------------------------------------------------------------------------|
B|-------------------------------------------------------------------------|
G|--------6^-6^-6^-4-2-4---------------------9-7-7-6-4---------------------|
D|-----7-----------------4-4-2-4--2-4-6-7--9-------------------------------|
A|---7---------------------------------------------------------------------|
E|-------------------------------------------------------------------------|

e|----------------------------17^-----------------------------------------|
B|-14^-14^-14^----------------15---14-12----------------------------------|
G|-14--14--14---16-----------------------11-7-6-6-7-9--11-13-14-13--------|
D|------------------16-14-16--------------------7-9-11-12-14-16-14--------|
A|------------------------------------------------------------------------|
E|------------------------------------------------------------------------|


there's some of it
the end is hard and i'm not that good at solos lolz

ps. i assume you already know this but just incase
http://www.rilokiley.net/viewtopic.php?t=8889
#3
Thankyouthankyouthankyou!!!

I'll definitely try that. I trust your madd skillz more than my own, haha.

But thank you so much.