Page 1 of 3
Captain Planet
Registered User
Join date: Apr 2006
1,343 IQ
#1
I saw this on the Metal forum and though it would be good to do on the CR forum.

Basically, post the code (with code tags) or a screengrab of a section powertab or GP tab or whatever (MUST be classic rock) and others must guess what song and artist is it. Post at most 2 lines of guitar tab so it's not too easy.

It's better is post a screengrab or a PT or GP tab so others can play it on their guitar to make it easier to get (with the tempo and note durations etc.)

Anyway, I'll start:

I'm not at home so I can't do a PT or GP screengrab, so texzt will have to do:


Standard Tuning

E|----------------|----------------|----------------|----------------|
B|----------------|----------------|----------------|----------1--2--|
G|----------------|----------------|----------------|----------2--3--|
D|--5---55--------|--5---55--------|--5---55--------|--5---555-3--4--|
A|----------------|----------------|----------------|----------------|
E|33-333----------|33-333----------|33-333----------|33-333----------|

E|----------------|----------------|----------------|----------------|----------------||
B|----------------|----------------|----------------|----------------|----------------||
G|----------------|----------------|----------------|----------------|7--6--5---3-----||
D|--5---55--------|--5---55--------|--5---55--------|--5---55------3-|----------3-----||
A|----------------|----------------|----------------|---------3-4-5-5|-5--4--3--1-----||
E|33-333----------|33-333----------|33-333----------|33-333----------|----------------||
shooky
i own a guitar?
Join date: Dec 2006
324 IQ
#2
any bob dylan song?
Quote:
guy-get an ak-47 shoot him and blame it on his dog
man-he dont have one... can someone siriously help me?!
guy-just jack one froma local pet store. throw it in his yard. shoot him. duck tape the ak-14 to the dogs paw. run.. use gloves.
Brandon860
They call me... Brough
Join date: Jul 2004
592 IQ
#4
right since no one's going and get-born was right I'll just post one.

--0--------2-------0-------2--------------------- 2-
--3--------2-------0-------2-------2-0-2-0-------2-
--2--------2-------1-------2-------2-2-2-2-------2-
--4--------2-------2-------0-------0-0-0-0-------2-
-------------------2-------0-------2-2-2-2------ 4-
---------------------------2--------------------- 2-
Quote by richwatkinson
haha You pwned an entire website....i bow down...

TheDudeBox
BrainDamage
Knirps for moisture
Join date: Aug 2004
4,254 IQ
#5
^^use code

This goes for everone else who posts in this thread as well. USE CODE!!! It's a lot easier to read.

How to achieve Frank Zappa's guitar tone:
Quote by Thefallofman
Step 1: Buy a Gibson SG
Step 2: Insert Green Ringer, EQ, 3 dead squirrels and a microwave into said SG
Step 3: Plug in and freak the **** out.
Brandon860
They call me... Brough
Join date: Jul 2004
592 IQ
#6
Hate to sound like n00b here but I've never had to do it so I dont know how. The answer was Let it Ride by BTO, someone else can go.
Quote by richwatkinson
haha You pwned an entire website....i bow down...

TheDudeBox
psychodelia
Defensive Specialist
Join date: Feb 2004
2,298 IQ
#7
Quote by Brandon860
Hate to sound like n00b here but I've never had to do it so I dont know how. The answer was Let it Ride by BTO, someone else can go.


Code lesson:

At the beginning of the tab, type [code]

At the end, type [/code]

The result:

-2-
-0-


And that's how it works
(Slightly outdated) Electronic and classical compositions by m'self: Check 'em out
Brandon860
They call me... Brough
Join date: Jul 2004
592 IQ
#8
E---------------------------------------------
B---------------------------------------------
G-----2---0--------------------2---0----------
D-0^2---2---2p0------------0^2---2---2p0------
A---------------0------------------------0----
E-----------------3-0----------------------3--


let's try again now
Quote by richwatkinson
haha You pwned an entire website....i bow down...

TheDudeBox
jac_murphy
UG's Railfan
Join date: Aug 2006
66 IQ
#9
Eagles - Life In the Fast Lane?

Here's mine:


----------------------------------------------------------
----------------------------------------------------------
-----------------------------------------2----------------
------------2-2---------2-2-----------0h4------2----------
-----4p2p0-------4p2p0--------4p2p0---------0h4-----------
0-0-------4-----------4-------------4------------0--------


Done. It goes on, but that's basically the intro...

-Jacques
Last edited by jac_murphy at Jan 5, 2007,
Brandon860
They call me... Brough
Join date: Jul 2004
592 IQ
#10
Roller- April Wine?
Quote by richwatkinson
haha You pwned an entire website....i bow down...

TheDudeBox
Maet
Registered User
Join date: Feb 2005
906 IQ
#11
Rhythm markers and time signatures would be nice too.
jac_murphy
UG's Railfan
Join date: Aug 2006
66 IQ
#12
^^Right you are.

^Pff. Who needs all that complicated theory shit? TRUE fans can tell what the tab is without it. Plus, you know damn well that that goes far beyond the IQ capacity of your average UG'er.

-Jacques
Brandon860
They call me... Brough
Join date: Jul 2004
592 IQ
#13


|-5---------------3-----------------5--------------3----------------10-|
|-----8---6\5---------6---5\3----------8---6\5---------6---5\3-----10--|
|-----------------------------------------------------------------10---|
|----------------------------------------------------------------12----|
|---------------------------------------------------------------12-----|
|--------------------------------------------------------------10------|
Quote by richwatkinson
haha You pwned an entire website....i bow down...

TheDudeBox
phatsack
Registered Abuser
Join date: Dec 2006
301 IQ
#14
santana - black magic woman



|-----------------------|-------------------|--------------------|----------------|
|--------------*------|----------------*--|--------------*-----|-------------*--|
:--------------X------|----------------X--|--------------X-----|-------------X--:
:-5---8---10------5-|---8---11--10------|--5---8---10-----8--|---5------------:
|-5---8---10------5-|---8---11--10------|--5---8---10-----8--|---5------------|
|----------------------|----------------------|-----------------------|---3------------|


oops no code
Decaptivated

Ibanez S370 (all custom)
Mesa Boogie Studio Pre
Fender Champ 25se (used to power Mesa pre)
Custom 2x12 cab w/ Eminence Texas Heats
phatsack
Registered Abuser
Join date: Dec 2006
301 IQ
#16
right, how'd ya guess that?
Decaptivated

Ibanez S370 (all custom)
Mesa Boogie Studio Pre
Fender Champ 25se (used to power Mesa pre)
Custom 2x12 cab w/ Eminence Texas Heats
Brandon860
They call me... Brough
Join date: Jul 2004
592 IQ
#17
Quote by phatsack
right, how'd ya guess that?


I hope that's sarcasm
Quote by richwatkinson
haha You pwned an entire website....i bow down...

TheDudeBox
Brandon860
They call me... Brough
Join date: Jul 2004
592 IQ
#19
are you gonna go jim_morrison714?
Quote by richwatkinson
haha You pwned an entire website....i bow down...

TheDudeBox
phatsack
Registered Abuser
Join date: Dec 2006
301 IQ
#20
oh yeah, forgot the emoticon

got any more
Decaptivated

Ibanez S370 (all custom)
Mesa Boogie Studio Pre
Fender Champ 25se (used to power Mesa pre)
Custom 2x12 cab w/ Eminence Texas Heats
paintITblack39
triangle offense expert
Join date: Nov 2005
3,120 IQ
#21
I'll go since this threads dead.
|-----2--2--2---2---|-7----7------9----7-| 
|-----3--3--3---3---|-8----8-----10----8-|        
|-----2--2--2---2---|-7----7------9----7-|        
|-------------------|--------------------|        
|-------------------|--------------------|
|-------------------|--------------------|
Sent from my iPad.
hendrix4934
Registered User
Join date: Dec 2006
1,305 IQ
#22
Is that bad company-fell like makin love.

Iv heard that riff so many times but cant realy remember
Brandon860
They call me... Brough
Join date: Jul 2004
592 IQ
#23
is it part of 2112 by rush? like discovery or something?
Quote by richwatkinson
haha You pwned an entire website....i bow down...

TheDudeBox
BrainDamage
Knirps for moisture
Join date: Aug 2004
4,254 IQ
#24
The only thing that it somewhat resembles in my ears is The Song Remains the Same.
How to achieve Frank Zappa's guitar tone:
Quote by Thefallofman
Step 1: Buy a Gibson SG
Step 2: Insert Green Ringer, EQ, 3 dead squirrels and a microwave into said SG
Step 3: Plug in and freak the **** out.
2112swartz
Hi, I'm Bill
Join date: Jul 2006
291 IQ
#25
ya, thats what it sounds like.
my band

ESP LTD Viper 400
Ibanez RG4EXQM1
Squier Fat Strat

Peavey EVH 5150
Peavey XXX Head
Roland Cube 30
Carvin 4x12 Cab
B-52 4x12 Cab

Boss GE-7
Boss NS-2
EH Big Muff Pi (Russian)
paintITblack39
triangle offense expert
Join date: Nov 2005
3,120 IQ
#26
No all you guesses are wrong.

I should just give it up. Its Herion by Velvet Underground. Its some really small part I picked.
Sent from my iPad.
Last edited by paintITblack39 at Jan 6, 2007,
BrainDamage
Knirps for moisture
Join date: Aug 2004
4,254 IQ
#27
shotgun next turn!

gimme a minute

EDIT: got one.

---------------------------------|---------------------------------|
-13--------------12--------------|-12--10--8---7-------------------|
-14--------------12--------------|-12--11--9---7-------------------|
---------------------------------|---------------------------------|
---------------------------------|---------------------------------|
---------------------------------|---------------------------------|


one of my favorite songs by this band.
How to achieve Frank Zappa's guitar tone:
Quote by Thefallofman
Step 1: Buy a Gibson SG
Step 2: Insert Green Ringer, EQ, 3 dead squirrels and a microwave into said SG
Step 3: Plug in and freak the **** out.
Captain Planet
Registered User
Join date: Apr 2006
1,343 IQ
#28
thanks for taking part guys I though someone might say "It's been done before n00b!" and close the thread. Please keep them coming! I'm not at home so it's harder for me to guess them because I can't play them on guitar.
treefiddey
Banned
Join date: Sep 2006
658 IQ
#29
Quote by paintITblack39
No all you guesses are wrong.

I should just give it up. Its Herion by Velvet Underground. Its some really small part I picked.


yeah I was gonna say that but it is a really small part
I diddnt think that you would put that
get-born
Illegal in 37 States...
Join date: Jan 2006
2,096 IQ
#30
I don't know BD's, but it dosen't look like anyone else does so...

-----------------------------------------
-----------------------------------------
-----------------------------------------
---------5----3-------5---3------------
-3-4-5----5------------------5----3---
------------------------------------------

-----------------------------5/-
--------------3-----------------
-4p2p0--2-----4p2p0-------
---------------------------------
---------------------------------
---------------------------------


HINT:

Think Gibson ES-175
BrainDamage
Knirps for moisture
Join date: Aug 2004
4,254 IQ
#31
^^Siberian Khatru. Doesn't seem exactly right, but that's the song you were aiming for.

Mine still stands from before
How to achieve Frank Zappa's guitar tone:
Quote by Thefallofman
Step 1: Buy a Gibson SG
Step 2: Insert Green Ringer, EQ, 3 dead squirrels and a microwave into said SG
Step 3: Plug in and freak the **** out.
get-born
Illegal in 37 States...
Join date: Jan 2006
2,096 IQ
#32
I messed up the tab a bit. Its right, I just got the lines mixed up, spacing wise, a bit.
ledhed68
Registered User
Join date: Mar 2005
1,305 IQ
#33
Quote by BrainDamage
shotgun next turn!

gimme a minute

EDIT: got one.

---------------------------------|---------------------------------|
-13--------------12--------------|-12--10--8---7-------------------|
-14--------------12--------------|-12--11--9---7-------------------|
---------------------------------|---------------------------------|
---------------------------------|---------------------------------|
---------------------------------|---------------------------------|


one of my favorite songs by this band.


This is probably wrong, but is it Breathe by Pink Floyd?
tristan123/
UG Freak
Join date: Jul 2006
919 IQ
#34
I got one:
e--------------------7>8-7-11<7-8-11-12>14-11-12-14>15-12-14-15<14-12----14<11
B------7^--7-10^------------------------------------------------------------------------15--------
G-8-9----9-----------------------------------------------
D-------------------------------------------------------------
A--------------------------------------------------------------------------
E-------------------------------------------------------------------------

e-12>14<12---12-
B--------------15----15^~

(>,< = hammer/pull off, ^= bend)
Behringerv-tone(first guitar)
Epiphone les paul standard plus (cherry burst)
Flanger Pearl peddle
Marshall G15R CD
Dunlop 535Q wah

I like Epi LP's. You got a problem, PM me!
Last edited by tristan123/ at Jan 9, 2007,
psychodelia
Defensive Specialist
Join date: Feb 2004
2,298 IQ
#35

e--------------------7>8-7-11<7-8-11-12>14-11-12-14>15-12-14-15<14-12----14<11 
B------7^--7-10^------------------------------------------------------------------------15
G-8-9----9-----------------------------------------------
D-------------------------------------------------------------
A--------------------------------------------------------------------------
E-------------------------------------------------------------------------


e-12>14<12---12-
B--------------15----15^~


(>,< = hammer/pull off, ^= bend)


Code! Gahh. And GnR isn't classic rock
(Slightly outdated) Electronic and classical compositions by m'self: Check 'em out
BrainDamage
Knirps for moisture
Join date: Aug 2004
4,254 IQ
#36
Quote by ledhed68
This is probably wrong, but is it Breathe by Pink Floyd?
nope. If Heartbreaker comes into this thread he'll be able to get it
How to achieve Frank Zappa's guitar tone:
Quote by Thefallofman
Step 1: Buy a Gibson SG
Step 2: Insert Green Ringer, EQ, 3 dead squirrels and a microwave into said SG
Step 3: Plug in and freak the **** out.
Lessthanbass22
Umphreak
Join date: Jul 2003
677 IQ
#37
Quote by BrainDamage
shotgun next turn!

gimme a minute

EDIT: got one.

---------------------------------|---------------------------------|
-13--------------12--------------|-12--10--8---7-------------------|
-14--------------12--------------|-12--11--9---7-------------------|
---------------------------------|---------------------------------|
---------------------------------|---------------------------------|
---------------------------------|---------------------------------|


one of my favorite songs by this band.


Dazed and Confused?
Quote by Pink_Floyd89
Hey baby, is that a mirror in your pocket or am I stabbing you repeatedly in the face?


The Slick Fingers of the Bass Malitia, PM IndieMetalHead to join

You don't own shit.
BrainDamage
Knirps for moisture
Join date: Aug 2004
4,254 IQ
#38
^^nope

EDIT: Hint time...

one of the members of the band who plays this song played in another band with Eric Clapton.
How to achieve Frank Zappa's guitar tone:
Quote by Thefallofman
Step 1: Buy a Gibson SG
Step 2: Insert Green Ringer, EQ, 3 dead squirrels and a microwave into said SG
Step 3: Plug in and freak the **** out.
ledhed68
Registered User
Join date: Mar 2005
1,305 IQ
#39
Quote by BrainDamage
^^nope

EDIT: Hint time...

one of the members of the band who plays this song played in another band with Eric Clapton.


Is it something by the Graham Bond Organisation?
treefiddey
Banned
Join date: Sep 2006
658 IQ
#40
Quote by BrainDamage
^^nope

EDIT: Hint time...

one of the members of the band who plays this song played in another band with Eric Clapton.


Happenings Ten Years Time Ago - The Yardbirds?

anything by the Beatles?
Last edited by treefiddey at Jan 11, 2007,