#1
could somebody please quickly tab the d-minor scale, the best and/or easyiest one, thanks!
PROUD MEMBER OF THE

Ug Irish Clan - Pog mo Thoin
#2
I think this is it

------------------------------------------------------------------------------------10--12--13---
--------------------------------------------------------------10---11----13----------------------
----------------------------------------------9--10---12------------------------------------------
------------------------------------10--12---------------------------------------------------------
------------------10--12--13---------------------------------------------------------------------
--10--12---13------------------------------------------------------------------------------------
#3
Dmin Scale, Starting on the A string
e|---------------------------------------------------------------------------|
B|---------------------------------------------------------------------------|
G|-----------------5-7-----------------------------------------------------|
D|---------5-7-8-----------------------------------------------------------|
A|-5-7-8-------------------------------------------------------------------|
E|---------------------------------------------------------------------------|

Dmin Scale, Starting on E String
e|-------------------------------------------------------------10--------------|
B|------------------------------------------------10-11-13-------------------|
G|---------------------------------------10-12-------------------------------|
D|--------------------------10-12-14----------------------------------------|
A|--------------10-12-13-----------------------------------------------------|
E|-10-12-13------------------------------------------------------------------|

Look up modes and stuff online for more in depth shapes and stuff