#1
hi can anyone tell me what song dis is?
and the band name? this is not the exact key but i'll provide the numbering

1 2 3 4 1 2 3 4 1 2 3 4 1 2 3 4 1 2 3 4 1 2 3 4
e--------------------------------------------------------------8------8-5--5----
b--------5--------5-----------------------5--------8---------------------8---8-
g---5-7-------------7-5-7-5--------5-7----------------------------------------
1 2 3 4
e---------------------------------
b--------5--------5--------------
g---5-7-------------7-5-7-5----


that's the intro

tnx
#2
Try using the code tags:

1 2 3 4 1 2 3 4 1 2 3 4 1 2 3 4 1 2 3 4 1 2 3 4
e--------------------------------------------------------------8------8-5--5----
b--------5--------5-----------------------5--------8---------------------8---8-
g---5-7-------------7-5-7-5--------5-7----------------------------------------

1 2 3 4
e---------------------------------
b--------5--------5--------------
g---5-7-------------7-5-7-5----


And nothing springs to mind for me.
#3
The lord of the rings theme? hell beats me, sounds a bit to friendly to be for guitar if you ask me?