#1
Just curious for feedback and comments. Crit for crit.

(Oh, and yes - for the chorus I experimented with going from the major to the relative minor. Was the transition fairly smooth?)

e|-------------------------------------------------------------------------|
B|-------------------------------------------------------------------------|
G|-------------------------------------------------------------------------|
D|---------------------played quietly on bass------------------------------|
A|-------------------------------------------------------------------------|
E|-12-12-12-0h7h12---0-12-11-9-0-11-9-7-0-4-4-4-0h2h4---0-2p0--0-0-4-0-7-0-|

e|--------------------------|
B|--------------------------|
G|--------------------------|
D|--played quietly on bass--|
A|--------------------------|
E|-----12-12-12-0h7h12------|

e|-----------------------------------------------------|
B|-----------------------------------------------------|
G|----9-8-6-x-8-6-4-----------------------x-x----------|
D|----x-x-x-x-x-x-x---6-6-6-6-6-6-----4/2-x-x-6---9----|
A|----7-6-4-x-6-4-2-2-6-6-6-6-6-6-----4/2-x-x-6---9----|
E|--0---------------0-4-4-4-0-0-4---0-2/0-----4-0-7-0--|

e|-----------------------------------------------------------------|
B|----------7b----------------------------5~-----------------------|
G|----------9b---/9-8-6--/8-6-4-----------4~----11/9---------------|
D|--9-9-9---------x-x-x---x-x-x---6-6-6----------x/x------6---9----|
A|--7-7-7--------/7-6-4--/6-4-2-2-6-6-6----------9/7------x---x----|
E|--0-0-0-0-----0-------0-------0-4-4-4-0-----0-------0-0-4-0-7-0--|

e|-----------------------------------|
B|-----------------------------------|
G|-----------------------------------|
D|-----------------------------------|
A|------------------4-------6---9----|
E|--2-0-0-0-4-0-7-0-2-0-0-0-4-0-7-0--|

e|-------------------------------------------------|
B|-------------------------------------------------|
G|-------------------------------------------------|
D|------repeat each set of 4 notes 4 times---------|
A|-------------------------------------------------|
E|--12-11-9-0---11-9-7-0---9-7-5-0---7-5-4-0-------|

e|----------------------------------------------|
B|-------repeat each set of 4 notes 4 times-----|
G|----------------------------------------------|
D|--14-13-11-13--13-11-9-11--11-9-7-9--9-7-6-8--|
A|----------------------------------------------|
E|----------------------------------------------|
 |
e|----------------------------------------------|
B|-------repeat each set of 4 notes 8 times-----|
G|----------------------------------------------|
D|----------------------------------------------|
A|----------------------------------------------|
E|--12-12-12-12--11-11-11-11--9-9-9-9--7-7-7-7--|

e|------------------------------------------------------------------|
B|------------------------------------------------------------------|
G|------------------------------------------------------------------|
D|--2-2-2-2-2------------------------6-6-6-6-6----------------------|
A|--2-2-2-2-2------------------------6-6-6-6-6----------------------|
E|--0-0-0-0-0---0-12-11-9-0-11-9-7-0-4-4-4-4-4---0-2-0-0-0-4-0-7-0--|

e|----------------------------------------------------------------|
B|----------------------------------------------------------------|
G|-----------------9-8-6---8-6-4----------------------------------|
D|--2-2-2-2-2------x-x-x---x-x-x---6-6-6-6-6-----4-------6---9----|
A|--2-2-2-2-2------7-6-4---6-4-2---6-6-6-6-6-----x-------x---x----|
E|--0-0-0-0-0---0--------0-------0-4-4-4-4-4---0-2-0-0-0-4-0-7-0--|

e|---------------------------------------------------------------|
B|---------------------------------------------------------------|
G|--1-1-1-1-1-------------3-3-3-3-4-4-4-4-4---4-4-4-4-4-3-3-3-3--| Accompany
D|--2-2-2-2-2---1-2-2-2-2-4-4-4-4-6-6-6-6-6---4-6-6-6-6-4-4-4-4--| with
A|--2-2-2-2-2---2-2-2-2-2-4-4-4-4-6-6-6-6-6---6-6-6-6-6-4-4-4-4--| acoustic
E|--0-0-0-0-0---0-0-0-0-0-2-2-2-2-4-4-4-4-4---4-4-4-4-4-2-2-2-2--| bar chords

e|----------------------------------------------2-2-2-2-3-3-3-3--|
B|--------------------------------------------0-4-4-4-4-4-4-4-4--|
G|--1-1-1-1-1-------------3-3-3-3-4-4-4-4-4---0-4-4-4-4-4-4-4-4--| Accompany
D|--2-2-2-2-2---1-2-2-2-2-4-4-4-4-6-6-6-6-6---0-4-4-4-4-2-2-2-2--| with
A|--2-2-2-2-2---2-2-2-2-2-4-4-4-4-6-6-6-6-6---0-2-2-2-2-2-2-2-2--| acoustic
E|--0-0-0-0-0---0-0-0-0-0-2-2-2-2-4-4-4-4-4----------------------| bar chords

Chorus (accompany with piano chords, four per bar):

e|--3---------------0---------------3--------------------------------|
B|--5---------------1---------------5--------------------------------|
G|--4---------------2---------------4--------------------------------|
D|--2-/-/-/-/-/-/-/-2-/-/-/-/-/-/-/-2-/-/-/-/-/-/-/-/-/-/-/-/-/-/-/--|
A|--2---------------0---------------2--------------------------------|
E|--0---------------0---------------0--------------------------------|

e|--3---------------5---------------7--------------------------------|
B|--5---------------5---------------7--------------------------------|
G|--4---------------5---------------9--------------------------------|
D|--2-/-/-/-/-/-/-/-7-/-/-/-/-/-/-/-9-/-/-/-/-/-/-/-/-/-/-/-/-/-/-/--|
A|--2---------------7---------------7--------------------------------|
E|--0---------------5---------------7--------------------------------|

e|--7---------------5---------------7--------------------------------|
B|--8---------------8--------------10--------------------------------|
G|--9---------------5---------------8--------------------------------|
D|--9-/-/-/-/-/-/-/-7-/-/-/-/-/-/-/-7-/-/-/-/-/-/-/-/-/-/-/-/-/-/-/--|
A|--7---------------7---------------9--------------------------------|
E|--7---------------5---------------7--------------------------------|

e|--8-------------------------------8--------------------------------|
B|--8-------------------------------8--------------------------------|
G|--9-------------------------------9--------------------------------|
D|-10-/-/-/-/-/-/-/-/-/-/-/-/-/-/-/-8-/-/-/-/-/-/-/-/~---------------|
A|-10------------------------------10--------------------------------|
E|--8-------------------------------8--------------------------------|

Repeat entire song from the intro onward.

e|-------------------------|
B|-------------------------|
G|-------------------------|
D|-------------------------| Played quietly on bass.
A|-------------------------| x2
E|--0-9-7-0-4-0-2-0-0h2h4--|

e|-------------------------|
B|-------------------------|
G|-------------------------|
D|-------------------------| Played loudly w/ electric guitar.
A|-------------------------| x2
E|--0-9-7-0-4-0-2-0-0h2h4--|

e|-------------------------|
B|-------------------------|
G|-------------------------|
D|---11-9---6---4----------| x2
A|----x-x---x---x----------|
E|--0-9-7-0-4-0-2-0-0h2h4--|

e|-------------------------|
B|---14-12~-9~--7~--5h7h9--|
G|-------------------------|
D|-------------------------| x2
A|-------------------------|
E|-------------------------|
 |
e|-------------------------|
B|-------------------------|
G|-------------------------|
D|---11-9---6---4----------| x2
A|----x-x---x---x----------|
E|--0-9-7-0-4-0-2-0-0h2h4--|

Solo (backing guitar plays chorus):

e|------------------------16-16-16-16-17-17-17-14-/22b-22b-22b-22b-22b~--0--|
B|--/17-17-17-17-17b~-------------------------------------------------------|
G|--------------------------------------------------------------------------|
D|---------------------14---------------------------------------------------|
A|--------------------------------------------------------------------------|
E|--------------------------------------------------------------------------|

e|--16p12p7h12-14p9p6h9-----------------19~--0----------------------------|
B|----------------------17b-17b-17b-17b-17~-------------------------------|
G|----------------------19b-19b-19b-19b--------13-(trem pick)-15-(trem.)--|
D|------------------------------------------------------------------------|
A|------------------------------------------------------------------------|
E|------------------------------------------------------------------------|

e|--------------11~--1/16-16-16-16-14-14-14-14---------------------|
B|---------------------------------------------12~-----------------|
G|--------13-------------------------------------------------------|
D|-----13----13----------------------------------------------------|
A|--11-------------------------------------------------------------|
E|-----------------------------------------------------------------|

e|--0-0-0-0-0---------------------4-4-4-4-4---4-4-4-4-4-2-2-2-2--|
B|--0-0-0-0-0---------------------4-4-4-4-4---4-4-4-4-4-2-2-2-2--|
G|--1-1-1-1-1-------------3-3-3-3-4-4-4-4-4---4-4-4-4-4-3-3-3-3--| Acoustic
D|--2-2-2-2-2---1-2-2-2-2-4-4-4-4-6-6-6-6-6---4-6-6-6-6-4-4-4-4--| x2
A|--2-2-2-2-2---2-2-2-2-2-4-4-4-4-6-6-6-6-6---6-6-6-6-6-4-4-4-4--|
E|--0-0-0-0-0---0-0-0-0-0-2-2-2-2-4-4-4-4-4---4-4-4-4-4-2-2-2-2--|

e|--------------4~----------|
B|-------------4-~----------|
G|------------4--~----------|
D|--(pause)--6---~----------|
A|----------6----~----------|
E|---------4-----~----------|
#2
Meh, I guess it's all about the Guitar Pro tabs and Power Tabs now


Poor text
#4
^ Meh, I'll probably just record the real thing sooner or later. Spending so much time Powertabbing something seems useless to me when I could just use that time recording real instruments.

Thanks anyways...
#5
You already used lots of time writing it in txt.
Anyway, im to lazy to read through that, and my guitar is not here on my lapp.