#1
.....and as a shitty guitarist I will play it, without even knowing what the song sounds like and record my first attempt.

And then we will compare it to what it is supposed to sound like.


...I'm bored.
The more you lick them
The more you like them


Not for the first time in my life, I curse my bad luck.
#3
The fact that it is a powertab sorta defeats the purpose, but I suppose I can resist pressing play.

OK, I'll do that now.
The more you lick them
The more you like them


Not for the first time in my life, I curse my bad luck.
#4
Correction, it's a Guitar Pro tab.
Guitar rig
Schecter C-1 Classic
Boss GT-8
Mesa 50/50 Power Amp
Avatar G212H 2x12 Cab

Synth Rig
M-Audio Oxygen 61
Creative Sound Blaster X-Fi Elite Pro
Reason 4.0
FL Studio 8
#6
touche.
The more you lick them
The more you like them


Not for the first time in my life, I curse my bad luck.
#7
Where's your accent on the e, pal? How'll you ever be a French Instructor? Tsk... Tsk...
#8
I tried and got bored. Powertabs and guitar pro tabs are too hard, with scrolling etc. And the fact that it has the note durations.
The more you lick them
The more you like them


Not for the first time in my life, I curse my bad luck.
#9
--------------------------------------------------1-5-3---
----------------------------------------7-11-9-----------
----------------------------11-15-13--------------------
--------------------3-7-5---------------------------------
---------9-13-11-----------------------------------------
-1-5-3----------------------------------------------------

It's the FAG scale. If you can play it in 3.7 seconds flat, your head will explode.
I don't like my user name.
#10
Quote by x_dashyboardy_x
--------------------------------------------------1-5-3---
----------------------------------------7-11-9-----------
----------------------------11-15-13--------------------
--------------------3-7-5---------------------------------
---------9-13-11-----------------------------------------
-1-5-3----------------------------------------------------

It's the FAG scale. If you can play it in 3.7 seconds flat, your head will explode.


Ahahaha...I wrote a song about Brokeback Mountain using F Am and G once...that was funny. Of course only my guitarist friends actually got the joke...
#12
Quote by x_dashyboardy_x
--------------------------------------------------1-5-3---
----------------------------------------7-11-9-----------
----------------------------11-15-13--------------------
--------------------3-7-5---------------------------------
---------9-13-11-----------------------------------------
-1-5-3----------------------------------------------------

It's the FAG scale. If you can play it in 3.7 seconds flat, your head will explode.

Using basic fretboard knowledge, this scale could be rather simple to play.
#13
Quote by pat_o_g
where's the random tab button?

Go to "my account" and near the bottom are all the "Random _____" links.
#14
Iberian Jewel

As you can see, wasn't the best of songs to choose, and I got bored.

New song please.
The more you lick them
The more you like them


Not for the first time in my life, I curse my bad luck.
#16
Stop posting these long tabs!!

I did the start again. And this one was worse than the last.
The more you lick them
The more you like them


Not for the first time in my life, I curse my bad luck.
#18
Alive

As I said, really bad.

Now, find me a vid of it, so I can see what it is supposed to be like.

And one of those anoyying-arse came up in the middle of it, so that would explain any pauses.
The more you lick them
The more you like them


Not for the first time in my life, I curse my bad luck.