#1
is there a way to play these chords differently?


e]---------------
B]------8--10--
G]------7--9---
D]------9--11--
#2
yes of course.
e]----3--5-----
B]----3--5-----
G]----4--6-----

EDIT: even better...

e]----3--5-----
B]----3--5-----
G]----4--6-----
D]----5--7------
A]--------0------
Ibanez Custom RG 120
Epiphone Custom SG Special
Line-6 Spider III 150 Combo
Marshall MG

Quote by Paul Gilbert
"Who cares what your fingers are doing? As long as it sounds cool!"


My Website

Jon Blake Music
Last edited by redSG at Jan 13, 2007,