#1
if you play it slow (realy slow it sound good for an intro I think and when you play it faster (about 190 bpm) it sound good of a little solo I think.




   |---3---|   |---3---|   |---3---|   |---3---|   
   E   E   E   E   E   E   E   E   E   E   E   E   
--12p--9------11p--9------12p--9------11p--9------|
----------10----------10----------10----------10--|
--------------------------------------------------|
--------------------------------------------------|


   |---3--|  |---3--|   |---3--|  |---3--|   
   E   E  E  E   E  E   E   E  E  E   E  E   
--11p--7-----9p--7-----11p--7-----9p--7-----|
----------7---------7----------7---------7--|
--------------------------------------------|
--------------------------------------------|


   |---3--|  |---3--|   |---3--|  |---3--|     
   E   E  E  E   E  E   E   E  E  E   E  E     
--11p--8-----9p--7-----11p--8-----9p--8------||
----------9---------9----------9---------9--*||
--------------------------------------------*||
---------------------------------------------||
Quote by NoobMuncher3000
BRILLIANT!

Quote by weemansyndrome


(__/)
(='.'=) This is Bunny. Copy and paste bunny into
(")_(") your signature to help him gain world domination.