#1
Little ditty i came up with
My friend put a tribal drum beat to it, and it sounded sweet



Drop Db

Eb|------------------------------------
Bb|------------------------------------
Gb|---------0-----------------0----0h2-
Db|-----0h1----1-0--------0h1----1-----
Ab|-3----------------3-----------------
Db|---0----------------0---------------

Eb|-----------------------------
Bb|-----------------------------
Gb|---------0-------------------
Db|-----0h1----10-0-8-0-7-0-5-0-
Ab|-3----------10-0-8-0-7-0-5-0-
Db|---0--------10-0-8-0-7-0-5-0-
How long have you gone w/o Masturbating

About a month or so. Had somebody else doing it for me at the time.
#3
I should have probably asked for comments on it...
Like, "thats sucks, you should stop playing guitar, and bend over" or "uhhh what was i doing in this thread" :p
How long have you gone w/o Masturbating

About a month or so. Had somebody else doing it for me at the time.
#4
Hmm yeh, don't quit your day job, but meh it has potential... i guess
#5
lke it . i played it on dropped d instead of db and i like
you can repeat a while the first measure and then put the other one