#1
i was just wondering if anyone knew how the bridge bit goes exactly on bass? when i say the bridge i mean the bit that goes:

Who knew the other side of you
Who knew what others died to prove
Too true to say goodbye to you
Too true, too sad sad sad

i know the rest of the song but when it comes to that, i usually make something up. ive got the tab for it that someone recommended on another thread and i still cant seem to work out how it goes any help would be much appreciated.
#2
are you shure ther is a bass guitar bein played in that bit ?? i no after wen it goes "sad sad sad" you can hear fleas bass & then it links into the verses but i didnt think i could hear a bass in the bridge
#3
Ok i dunno how to od out the tab but anyway ill try:

---------------------------------
-----------9-X----9-------------
---------9------9---------0-7-9--10--10-----10-----0-9--9-7-9
7-7---7-------------------------------------10-----------------------9

Reapeat that for three lines.
Then:

-----------------------------
------------9-X----9-9
----------9------9----------------------------5-7
7-7----7-------------------0--77-------0/7------7\5-3

Sorry about spacings but you can work out the timings
Warwick Jazzman
Hartke 1415 140Watt
Boss Overdrive
Last edited by unicycleboy at Jan 15, 2007,
#4
thanks for that! i'll give it a go! and yeah there is definately a bass part to it, im sure of it, u can hear something going on and also the video shows flea playing something, as do various live performances