#1
Hey everyone!
I would like to play I could die for you by the chilis like this guy here:
http://www.youtube.com/watch?v=EviGk8FoBiU

I've looked at the tabs but none really match up with what he's doing. Can anyone play this song well? If so how did you learn it?

Cheers
Ibanez RG760 (For Sale)
Yamaha Pacifica (For Sale)
Zoom G2.1U effects pedal (For Sale)
Tanglewood Acoustic
Kustom 16DFX Amp
#2
well the whole song consists almost only of chords:
 intro
e-------4----
b----2--2-2--
g----2--2-2--
d----2--2-2--
a------------
e------------
verse
e----2---7---2---7----9---12--9---12-
b----2---6---2---6----x---7---x---7-
g----2---6---2---6----6---7---6---7-
d--------6-------6----x---9---x---9-
a--------4-------4----7---9---7---9-
e---------------------5---7---5---7-
chorus
e----0--7---7---9--------0--7---7----7----7---
b----2--9---7---10-------2--9---7-10-7-10-7
g----2--9---8---11-------2--9---7-7--7-7--7-
d----2--9---9---11-------2--9---9-9--9-9--9-
a----0--7---9---9--------0--7---9-9--9-9--9---
e----0--7---7---9--------0--7---7-7--7-7--7--

verse 2
e----2---7---2---7----9---12--9---12--14--16--14--16--9-12-9--12-9
b----2---6---2---6----x---7---x---7---x---14--x---14--9-9--9--9--9
g----2---6---2---6----6---7---6---7---10--14--10--14--9-9--9--9--9
d--------6-------6----x---9---x---9---x---14--x---14---
a--------4-------4----7---9---7---9---11--12--11--12
e---------------------5---7---5---7---9---12--9---12


well the rest is pretty similar, u will probably stretch ur finger more than usually for this tune. for the strumming patterns watch the guy playing.
#3
Thanks for that mate it helped a lot. I'm kinda getting the hang of it now. My hands are small and find it hard to play my acoustic so this is pretty tough to play for me. Wish I could get as good as the guy in that video. He plays it so smooth like its easy. Hopefully I'll get there one day!
Ibanez RG760 (For Sale)
Yamaha Pacifica (For Sale)
Zoom G2.1U effects pedal (For Sale)
Tanglewood Acoustic
Kustom 16DFX Amp
#4
Quote by richardm80
Thanks for that mate it helped a lot. I'm kinda getting the hang of it now. My hands are small and find it hard to play my acoustic so this is pretty tough to play for me. Wish I could get as good as the guy in that video. He plays it so smooth like its easy. Hopefully I'll get there one day!

well, thats just a question of training . i couldnt play these chords at beggining too,
but just try as much as u can and u will be able to stretch ur fingers more and more