#1
Just looking for feedback.
e|----------------------------------------------------------|
B|---Tremolo pick each note 32 times, slightly palm muted---|
G|----------------------------------------------------------|
D|--10----9----7----5----3----2----0------------------------|
A|--------------------------------------3----0--------------|
E|------------------------------------------------3----1----|
 |
 | While playing the above on guitar, play these notes on piano:
 |
e|-13p5h8p5—12p5h8p5—10p3h7p3—8p1h5p1—13p5h8p5-15p8h12p8—17p10h13p10—20p13h17p13-|
B|-------------------------------------------------------------------------------|
G|-------------------------------------------------------------------------------|
D|-----------------------repeat each sequence four times-------------------------|
A|-------------------------------------------------------------------------------|
E|-------------------------------------------------------------------------------|

e|------------------------------------------------------------|
B|------------------------------------------------------------|
G|------------------------------------------------------------|
D|------------------------------------------------------------|
A|------------------------------------------------------------|
E|---0~-----12/-----------------------------------------------|

e|-------------------------------------------------------------|
B|-------------------------------------------------------------|
G|----------------5-4---4----------------------5-4---4---------|
D|------------5-7-----7----7---------------5-7-----7----7------|
A|-------/7-8----------------8-7------/7-8----------------8-7--|
E|--/5--5------------------------/3--3-------------------------|

e|-------------------------------------------------------------|
B|-------------------------------------------------------------|
G|----------------5-4---4----------------------5-4---5----5/7--|
D|------------5-7-----7----7---------------5-7-----7----7------|
A|-------/7-8----------------8-7------/7-8---------------------|
E|---1--1-------------------------0--0-------------------------|

e|------------------8-7----8--------------------------8-7----8----------|
B|-------------8-10-----10----10-----------------8-10-----10---10-------|
G|-------/9-10-------------------10-9------/9-10------------------10-9--|
D|--/7--7-----------------------------/5--5-----------------------------|
A|----------------------------------------------------------------------|
E|----------------------------------------------------------------------|

e|------------------8-7----8--------------------------8-7----12----12/17--|
B|-------------8-10-----10----10-----------------8-10-----10----10--------|
G|-------/9-10-------------------10-9------/9-10--------------------------|
D|--/3--3-----------------------------/2--2-------------------------------|
A|------------------------------------------------------------------------|
E|------------------------------------------------------------------------|

e|--------------------------------------------------------|
B|--------------------------------------------------------|
G|-------------------10-9-7----------------------9-7-5----|
D|--7-7-7-9--710--7-7------10--5-5-5-9--5-7--5-5-------7--|
A|--------------------------------------------------------|
E|--------------------------------------------------------|
 |  Palm muted
e|--------------------------------------------------------|
B|--------------------------------------------------------|
G|--------------------------------------------------------|
D|--------------------------------------------------------|
A|--7-7-7-7--7-7------8-7-5----5-5-5-5--5-5------7-5-3----|
E|--5-5-5-7--5-8--5-5-------8--3-3-3-7--3-5--3-3-------5--|

e|--------------------------------------------------------|
B|--------------------------------------------------------|
G|--------------------7-5-4----------------------5-4-2----|
D|--3-3-3-5--3-7--3-3-------5--2-2-2-5--2-2--2-2-------2--|
A|--------------------------------------------------------|
E|--------------------------------------------------------|
 |  Palm muted
e|--------------------------------------------------------|
B|--------------------------------------------------------|
G|--------------------------------------------------------|
D|--------------------------------------------------------|
A|--3-3-3-3--3-3------5-3-2----2-2-2-2--2-2------3-2-0----|
E|--1-1-1-3--1-5--1-1-------3--0-0-0-3--0-0--0-0-------0--|

e|--------------------------------------------------------|
B|--------------------------------------------------------|
G|-------------------10-9-7----------------------9-7-5----|
D|--7-7-7-9--710--7-7------10--5-5-5-9--5-7--5-5-------7--|
A|--------------------------------------------------------|
E|--------------------------------------------------------|
 |
e|--------------------------------------------------------|
B|--------------------------------------------------------|
G|--------------------------------------------------------|
D|--------------------------------------------------------|
A|--7-7-7-7--7-7------8-7-5----5-5-5-5--5-5------7-5-3----|
E|--5-5-5-7--5-8--5-5-------8--3-3-3-7--3-5--3-3-------5--|

e|--------------------------------------------------------|
B|--------------------------------------------------------|
G|--------------------7-5-4----------------------5-4-2----|
D|--3-3-3-5--3-7--3-3-------5--2-2-2-5--2-2--2-2-------2--|
A|--------------------------------------------------------|
E|--------------------------------------------------------|
 |
e|--------------------------------------------------------|
B|--------------------------------------------------------|
G|--------------------------------------------------------|
D|--------------------------------------------------------|
A|--3-3-3-3--3-3------5-3-2----2-2-2-2--2-2------3-2-0----|
E|--1-1-1-3--1-5--1-1-------3--0-0-0-3--0-0--0-0-------0--|

Play each triad on a piano four times, increasing the octave each time.

a a B B C C d d e e F F G G a a 

e|--------------------------------------------------------------|
B|--------------------------------------------------------------|
G|---------------5-4---9----10/9---------------5-4---9--7-9/10--|
D|-----------5-7-----7----5----------------5-7-----7------------|
A|------/7-8--------------------------/7-8----------------------|
E|-/5--5-------------------------/3--3--------------------------|

e|------------------------------------------------------------|
B|------------------------------------------------------------|
G|---------------5-4-2-5----5/2---------------5-4------4------|
D|-----------5-7----------5---------------5-7-----7-5----5/7--|
A|------/7-8-------------------------/7-8---------------------|
E|--1--1-------------------------0--0-------------------------|

e|-----------------8-7----12----13p12----------------8-7----12----12/13--|
B|------------8-10-----10-----8-----------------8-10-----10----10--------|
G|------/9-10-----------------------------/9-10--------------------------|
D|-/7--7-----------------------------/5--5-------------------------------|
A|-----------------------------------------------------------------------|
E|-----------------------------------------------------------------------|

e|-----------------8-7-5--8----8p5-----------------8-7-5-3--7-3/5--|
B|------------8-10-----------8----------------8-10-----------------|
G|------/9-10---------------------------/9-10----------------------|
D|-/3--3---------------------------/2--2---------------------------|
A|-----------------------------------------------------------------|
E|-----------------------------------------------------------------|

e|------------------------------------------------------|
B|------------------------------------------------------|
G|------------------------------------------------------|
D|-/10-----9--------7-----5------7----------------------| x2
A|-----7-8----7-8-7---7-8----7-8------------------------|
E|------------------------------------------------------|

e|-------------------------------------------------------|
B|-------------------------------------------------------|
G|-------------------------------------------------------|
D|-------------------------------------------------------| x2
A|--3-----2--------0------------0------------------------|
E|----0-1----0-1-0---0-1-3--0-1--------------------------|

e|------------------------------------------------------|
B|------------------------------------------------------|
G|------------------------------------------------------| Palm muted
D|--10-----9--------7-----5------7----------------------| x2
A|-----7-8----7-8-7---7-8----7-8------------------------|
E|------------------------------------------------------|

e|-------------------------------------------------------|
B|-------------------------------------------------------|
G|-------------------------------------------------------| Release palm muted
D|-------------------------------------------------------| x2
A|--3-----2--------0------------0------------------------|
E|----0-1----0-1-0---0-1-3--0-1--------------------------|
#2
e|-------------------131210---------------------1210-8----|
B|-10101012-1013-1010------13--8-8-812--810--8-8------10--|
G|-------------------10-9-7----------------------9-7-5----|
D|--7-7-7-9--710--7-7------10--5-5-5-9--5-7--5-5-------7--|
A|--------------------------------------------------------|
E|--------------------------------------------------------|
 |
e|--------------------------------------------------------|
B|--------------------------------------------------------|
G|--------------------------------------------------------|
D|--------------------------------------------------------|
A|--7-7-7-7--7-7------8-7-5----5-5-5-5--5-5------7-5-3----|
E|--5-5-5-7--5-8--5-5-------8--3-3-3-7--3-5--3-3-------5--|

e|-------------------10-8-7----------------------8-7-5----|
B|--6-6-6-8--610--6-6-------8--5-5-5-8--5-5--5-5-------5--|
G|--------------------7-5-4----------------------5-4-2----|
D|--3-3-3-5--3-7--3-3-------5--2-2-2-5--2-2--2-2-------2--|
A|--------------------------------------------------------|
E|--------------------------------------------------------|
 |
e|--------------------------------------------------------|
B|--------------------------------------------------------|
G|--------------------------------------------------------|
D|--------------------------------------------------------|
A|--3-3-3-3--3-3------5-3-2----2-2-2-2--2-2------3-2-0----|
E|--1-1-1-3--1-5--1-1-------3--0-0-0-3--0-0--0-0-------0--|

Play each triad on a piano four times, increasing the octave each time.

a a B B C C d d e e F F G G a a

e|--0h1p0h1p0h1p0h1/3p1h3p1h3p1h3p1/3h5p3h5p3h5p3h5/8p5h8p5h8p5h8p5--|
B|-------------------------------------------------------------------|
G|-------------------------------------------------------------------|
D|-------------------------------------------------------------------|
A|-------------------------------------------------------------------|
E|-------------------------------------------------------------------|

e|-13p5h8p5—12p5h8p5—10p3h7p3—8p1h5p1—13p5h8p5-15p8h12p8—17p10h13p10—20~-|
B|-----------------------------------------------------------------------|
G|-----------------------------------------------------------------------|
D|----------------repeat each tapping sequence four times----------------|
A|--------use right tapping finger more than once if necessary-----------|
E|-----------------------------------------------------------------------|

e|--h19p15p13p12-h15p13p12p10-h13p12p10p8-h12p10p8p7-p5~--|
B|--------------------------------------------------------|
G|--------------------------------------------------------|
D|--------------------------------------------------------|
A|--------------------------------------------------------|
E|--------------------------------------------------------|

e|--------------------------------------------10-8-7--------8-0~--|
B|---------------------------------------------------8~--10-------|
G|-------------------------7-----------10-9-7---------------------|
D|--/7~--/7-9-10~--/7-9-10---10-9-10-9----------------------------|
A|----------------------------------------------------------------|
E|----------------------------------------------------------------|

e|--------------------------------------------------------|
B|--------------------------------------------------------|
G|------------------------5---5-7b--7b--7b--7b—5=h7p5-----|
D|----------2-3---5-7---7---7-------------------------7~--|
A|------3-0-----0-----0-----------------------------------|
E|--1-3---------------------------------------------------|

e|------------------------------------|
B|------------------------------------|
G|------------------------------------|
D|------------------------------------|
A|------------------------------------|
E|--0-1-3-5-0-3-5-7-0-5-7-8-0-7-8-10--|

e|--------------------7-----------------------3-5-5--|
B|--------------8-------8-8-------------3------------|
G|--------9-------9-9-------------5-------5-5--------|
D|----------9-9---------------------5-5--------------|
A|--7-7-7-------------------3-3-3--------------------|
E|---------------------------------------------------|

e|------5-----------------------------5/17~-------|
B|----6-------5-6-----5-------------5-------------|
G|--7-------6-----7-----6---------6---------------|
D|--------7---------7-----7-----7-----------------|
A|----------------------------7-------------------|
E|--------------------------5----------------12/--|

e|------------------------------------------------------|
B|------------------------------------------------------|
G|------------------------------------------------------|
D|-/10-----9--------7-----5------7----------------------| x2
A|-----7-8----7-8-7---7-8----7-8------------------------|
E|------------------------------------------------------|

e|-------------------------------------------------------|
B|-------------------------------------------------------|
G|-------------------------------------------------------|
D|-------------------------------------------------------| x2
A|--3-----2--------0------------0------------------------|
E|----0-1----0-1-0---0-1-3--0-1--------------------------|

e|------------------------------------------------------|
B|------------------------------------------------------|
G|------------------------------------------------------| Palm muted
D|--10-----9--------7-----5------7----------------------| x2
A|-----7-8----7-8-7---7-8----7-8------------------------|
E|------------------------------------------------------|

e|-------------------------------------------------------|
B|-------------------------------------------------------|
G|-------------------------------------------------------| Release palm muted
D|-------------------------------------------------------| x2
A|--3-----2--------0------------0------------------------|
E|----0-1----0-1-0---0-1-3--0-1--------------------------|

Acoustic, with open chords as backing:

e|--------------------------------------------------------------|
B|--------------------------------------------------------------|
G|---------------5-4---9----10/9---------------5-4---9--7-9/10--|
D|-----------5-7-----7----5----------------5-7-----7------------|
A|------/7-8--------------------------/7-8----------------------|
E|-/5--5-------------------------/3--3--------------------------|

e|------------------------------------------------------------|
B|------------------------------------------------------------|
G|---------------5-4-2-5----5/2---------------5-4------4------|
D|-----------5-7----------5---------------5-7-----7-5----5/7--|
A|------/7-8-------------------------/7-8---------------------|
E|--1--1-------------------------0--0-------------------------|

e|-----------------8-7----12----13p12----------------8-7----12----12/13--|
B|------------8-10-----10-----8-----------------8-10-----10----10--------|
G|------/9-10-----------------------------/9-10--------------------------|
D|-/7--7-----------------------------/5--5-------------------------------|
A|-----------------------------------------------------------------------|
E|-----------------------------------------------------------------------|

e|-----------------8-7-5--8----8p5-----------------8-7-5-3--7-3/5-5~--|
B|------------8-10-----------8----------------8-10----------------5~--|
G|------/9-10---------------------------/9-10---------------------5~--|
D|-/3--3---------------------------/2--2--------------------------7~--|
A|----------------------------------------------------------------7~--|
E|----------------------------------------------------------------5~--|


Crit for crit.