#1
-|-----------------------|------------------------------------------------|--
-|----12--10-------------|------------------------------------------------|--
-|-12-12--10----10-------|---------------------------------------10-------|--
-|-12--------12----------|-----------------------10--10h12-10h12----12----|--
-|-------------------12\-|-------10--10h12p10h12---12---------------------|--
-|-----------------------|--10h13--12-------------------------------------|--
..................
-|---------------------------10------13p10h13h15p10h13--13-bfull----------13-
-|------------10--10h13-10h13--13-10-------------------(13)bf----------------
-|-10h12-10h12--12-----------------------------------------------------------
-|---------------------------------------------------------------------------
-|---------------------------------------------------------------------------
-|---------------------------------------------------------------------------


this is the first part of hte solo... now when im playin the ascending upwards pattern... do i use three fingers being my pointer middle and ring.... or do i use just my pointer and ring. if anyone can help it would be much appreciated... thanks very much!!!!
#2
Yes!you should play it with three finger.You can't do that with two finger,it's too hard.