#1
Hey folks, first off I want to apologize if I'm posting this in the wrong place. This is my first time on the actual forums so I have no idea, hehe.

But I was wondering, can anyone figure out all the chords that Ben Moody is using in this video?

http://www.youtube.com/v/p1Y9ccRg7gw


The first 3 I know are:

First one:

|-----------|E
|-----------|A
|-7--------|D
|-6--------|G
|-5--------|B
|-----------|e

Second one:

|-----------|E
|---4-------|A
|---6-------|D
|---6-------|G
|---5-------|B
|-----------|e

then he slides right before the chorus (#3)

|-------------|E
|---9--------|A
|---11------|D
|---11------|G
|---10-------|B
|------------|e


Now being I've only been teaching myself to play a year, I'm not exactly too sure what chords these are. So I would appreciate it if you know the chords he uses, if you could put them in this style for me


Thanks to everyone who helps, and again I apologize if I'm putting this in the wrong place
~~SB
Last edited by jw2bmamylee at Jan 19, 2007,
#2
|-------------|E
|----9-------|A
|---11-------|D
|---11-------|G
|---10-------|B
|----9-------|e

|-----------|E
|---4-------|A
|---6-------|D
|---6-------|G
|---5-------|B
|---4-------|e

|----0-------|E
|----2-------|A
|----2-------|D
|----1-------|G
|----0-------|B
|----0-------|e

chorus

|----2-------|E
|----4-------|A
|----4-------|D
|----2-------|G
|----2-------|B
|----2-------|e

|-----------|E
|-----------|A
|---0-------|D
|---2-------|G
|---3-------|B
|---0-------|e

|----0------|E
|----2-------|A
|----2-------|D
|----1-------|G
|----0-------|B
|----0-------|e

|------------|E
|---4-------|A
|---6-------|D
|---6-------|G
|---5-------|B
|---4-------|e

Bridge

|-----------|E
|-----------|A
|---0-------|D
|---2-------|G
|---3-------|B
|---0-------|e

|---2-------|E
|---4-------|A
|---4-------|D
|---2-------|G
|---2-------|B
|---2-------|e

|----0------|E
|----2-------|A
|----2-------|D
|----1-------|G
|----0-------|B
|----0-------|e

|-----------|E
|-----------|A
|---0-------|D
|---2-------|G
|---3-------|B
|---0-------|e

|-----------|E
|---2-------|A
|---4-------|D
|---4-------|G
|---3-------|B
|---2-------|e

|-----------|E
|---4-------|A
|---6-------|D
|---6-------|G
|---5-------|B
|---4-------|e

|-----------|E
|-----------|A
|---0-------|D
|---2-------|G
|---3-------|B
|---0-------|e

|----0------|E
|----2-------|A
|----2-------|D
|----1-------|G
|----0-------|B
|----0-------|e

then repeat chorus

then repeat intro and your done
Quote by Lukeisonfire
tool and opeth definitly dont play tube amps . You cant get those distorted sounds out of it. tube is for like beatles stuff right?


Quote by evilbeaver22
You're right, just about the only thing better than a Spider 3 is an MG : )


Last edited by Pete Griffin at Jan 19, 2007,
#3
I appreciate the quick response bro, thank you =). I'll make sure to check back.

bah shoulda known there was going to be an F chord in there somewhere. I'm still learning to do them, but hey, no harm in trying =).


thanks again
~~SB
#4
btw there's no f chord in the song
Quote by Lukeisonfire
tool and opeth definitly dont play tube amps . You cant get those distorted sounds out of it. tube is for like beatles stuff right?


Quote by evilbeaver22
You're right, just about the only thing better than a Spider 3 is an MG : )


#6
ye thats right. If there's a chord you can't play just keep practicing everyday and you'lll get it in no time. Glad i could help
Quote by Lukeisonfire
tool and opeth definitly dont play tube amps . You cant get those distorted sounds out of it. tube is for like beatles stuff right?


Quote by evilbeaver22
You're right, just about the only thing better than a Spider 3 is an MG : )


#7


or I have a chord finder that helps me play it a different way if I get angry and decide to give up ^_^, lol. But yeah I'm gunna keep trying

take care and thanks! (how many times do i gotta say that?....oh yeah, brownie points, yay! lol, juz messin')


~~SB