#1
well, tell me whats wrong with it...

i was gettin pissed off cuz no one else was tabbin it so i tried....I KNOW ITS NOT PERFECT BUT ITS THE BEST I COULD DO.....i wanted it to be an outline for the better tabbers...


This riff comes in at 1:49 on triviums ignition

   
|---------------------------------------------------------------------------------------------------
|---------------------------------------------------------------------------------------------------
|---------------------------------------------------------------------------------------------------
|---------------------------------------------------------------------------------------------------
|--7S6-------------------------------8p6------------------------------9p6---------------------------
|--7S6---6-6-6----6-6-6----6-6-6-----6----6-6-6----6-6-6----6-6-6-----6-----6-6-6----6-6-6----6-6-6-
            

 
------------------------------------------------------------------|
------------------------------------------------------------------|
------------------------------------------------------------------|
-------------------------------------------------5----6----8----9-|
5----------6-----------8----------9--------------5----6----8----9-|
--6-6-6-6----6-6-6-6-----6-6-6-6----6-6-6-6--------0----0----0----|


    
----------------------------------------------------------------|
----------------------------------------------------------------|
----------------------------------------------------------------|
--7h8p7----7----------5-------------------5S7-----------------7-|
--------9----9-8-6----5-0-0-0-0-0-0-0-0---5S7-0-0-0-0-0-0-0-0-7-|
----------------------------------------------------------------|