#1
Could anyone tab out Melody Lee? It's one of me favourite songs by The Damned, but I'm terrible at tabbing, especially with solos. Thanks in advance
#2
Artist: The Damned
Song: Melody Lee
Tuning: Standard


E|--------------------------------------------------------------------|
B|--------------------------------------------------------------------|
G|----------------------------------------------------7-7-7-7-7-7-7-7-|
D|-7-7-7-7-7-7-7-7--2-2-2-2-2-2-2-2--5-5-5-5-5-5-5-5--7-7-7-7-7-7-7-7-|
A|-7-7-7-7-7-7-7-7--2-2-2-2-2-2-2-2--5-5-5-5-5-5-5-5--5-5-5-5-5-5-5-5-|
E|-5-5-5-5-5-5-5-5--0-0-0-0-0-0-0-0--3-3-3-3-3-3-3-3------------------|

E|-----------------------------------------|
B|-----------------------------------------|
G|-----------------------------------------|
D|-7-7-7-7---11-12-11-11-11----22----------|
A|-7-7-7-7----9-10--9--9--9----22--7-5-7-7-|
E|-5-5-5-5---------------------00--5-3-5-5-|

E|--------------------------------------------------------------------|
B|--------------------------------------------------------------------|
G|----------------------------------------------------7-7-7-7-7-7-7-7-|
D|-7-7-7-7-7-7-7-7--2-2-2-2-2-2-2-2--5-5-5-5-5-5-5-5--7-7-7-7-7-7-7-7-|
A|-7-7-7-7-7-7-7-7--2-2-2-2-2-2-2-2--5-5-5-5-5-5-5-5--5-5-5-5-5-5-5-5-|
E|-5-5-5-5-5-5-5-5--0-0-0-0-0-0-0-0--3-3-3-3-3-3-3-3------------------|

E|------------------------------------------|
B|------------------------------------------|
G|------------------------------------------|
D|-7-7-7-7---11-12-11-11-11----2-2----------|
A|-7-7-7-7----9-10--9--9--9----2-2--7-5-7-7-|
E|-5-5-5-5---------------------0-0--5-3-5-5-|

E|-------------------------------------------------------------|
B|-------------------------------------------------------------|
G|-6~~---4-----------------------------------------------------|
D|-7~~---5-----------------------------------------------------|
A|-7~~---5-7-7-7-7-7-7-7-5-5-5-5-5-5-7-7-7-7-7-7-2-2-2-2-2-2---|
E|-5~~---3-5-5-5-5-5-5-5-3-3-3-3-3-3-5-5-5-5-5-5-0-0-0-0-0-0---|
PM................................................ .|

E|-------------------------------------------------------------|
B|-6-6-6-6-6-6-6-6-6-6-6-6-6-6-6-6-6-6-6-6-6-6-6-6-6-6-6-6-6-6-|
G|-7-7-7-7-7-7-7-7-7-7-7-7-7-7-7-7-7-7-7-7-7-7-7-7-7-7-7-7-7-7-|
D|-7-7-7-7-7-7-7-7-7-7-7-7-7-7-7-7-7-7-7-7-7-7-7-7-7-7-7-7-7-7-|
A|-5-5-5-5-5-5-5-5-5-5-5-5-5-5-5-5-5-5-5-5-5-5-5-5-5-5-5-5-5-5-|
E|-------------------------------------------------------------|
Do this for the whole solo

E|--------------------------------------------------------------------|
B|--------------------------------------------------------------------|
G|----------------------------------------------------7-7-7-7-7-7-7-7-|
D|-7-7-7-7-7-7-7-7--2-2-2-2-2-2-2-2--5-5-5-5-5-5-5-5--7-7-7-7-7-7-7-7-|
A|-7-7-7-7-7-7-7-7--2-2-2-2-2-2-2-2--5-5-5-5-5-5-5-5--5-5-5-5-5-5-5-5-|
E|-5-5-5-5-5-5-5-5--0-0-0-0-0-0-0-0--3-3-3-3-3-3-3-3------------------|

E|----------------------------------------|
B|----------------------------------------|
G|----------------------------------------|
D|-7-7-7-7--11-12-11-11-11---2-2----------|
A|-7-7-7-7---9-10--9--9--9---2-2-7-5-7-7--|
E|-5-5-5-5-------------------0-0-5-3-5-5--|

Ending:
E|------------------------------|
B|------------------------------|
G|------------------------------|
D|-7~~--2~~--5-7-7-7-7-7-7-7-7--|
A|-7~~--2~~--5-7-7-7-7-7-7-7-7--|
E|-5~~--0~~--3-5-5-5-5-5-5-5-5--|