#1
(hint: New Taiwan Dollars, or NT, are the currency used in Taiwan)

[Played using a 10NT coin, sung and played with a very George Thorogood vibe - think Bad To The Bone]

I ain’t gotta pick
I just gotta coin
Ain’t even a quarta’
‘S Chinese change

I’m outta the states
Lef’ my girl behind
Ain’t gotta way home
Jus’ some Chinese change

Got them 10NT blues
Leave me out in the cold
Got them 10NT blues
Way down in my soul

I’m so far away
Right over the sea
If I had the arms
I’d swim all the way

Wo mei you qian
Jiu you shi kuai
Qing gei wo hen duo
You dongxi yao mai

Got them 10NT blues
Tearin’ me apart
Got them 10NT blues
They’re breakin’ my heart


I may add a verse later, and may scrap the chinese verse for an english one later. I'll post the tabs later if anyone actually cares.
You know the bitter comes out better on a stolen guitar
You're the BLESSED, we're the Spiders from Mars!

Member 3 of the "Mick Ronson Is an extremely Awesome Guitar Player" Fanclub. PM ThePurpleRabbit to join.
#2
nice man...good stuff.

id love to see the music for it. and the chinese verse is very cool (even though i dont know what it means.) but you dont really see blues and chinese together, so i think its cool that you did it.

nice work
#3
It translates as "I ain't got no money, just ten bucks, please gimme a lot cause there's stuff i gotta buy". It doesnt sound so nice in english, but the verse works in chinese.
You know the bitter comes out better on a stolen guitar
You're the BLESSED, we're the Spiders from Mars!

Member 3 of the "Mick Ronson Is an extremely Awesome Guitar Player" Fanclub. PM ThePurpleRabbit to join.
#4

     E  S E  S E  S E  S    E  S E  S E  S E  S    E  S E  S E  S E  S  
E||----------------------|----------------------|----------------------|
B||---------------3-5--3-|--0----0----0--3-5--3-|--0----0----0--3-5--3-|
G||---------------3-5--3-|--0----0----0--3-5--3-|--0----0----0--3-5--3-|
D||---------------3-5--3-|--0----0----0--3-5--3-|--0----0----0--3-5--3-|
A||----------------------|----------------------|----------------------|
E||----------------------|----------------------|----------------------|


  E  S E  S E  S E  S    E  S E  S E  S E  S    E  S E  S E  S E  S  
----------------------|----------------------|----------------------|
--0----0----0--3-5--3-|--0----0----0--3-5--3-|--0----0----0--3-5--3-|
--0----0----0--3-5--3-|--0----0----0--3-5--3-|--0----0----0--3-5--3-|
--0----0----0--3-5--3-|--0----0----0--3-5--3-|--0----0----0--3-5--3-|
----------------------|----------------------|----------------------|
----------------------|----------------------|----------------------|


  E  S E  S E  S E  S    E  S E  S E  S E  S    E  S E  S E  S E  S  
----------------------|----------------------|----------------------|
--0----0----0--3-5--3-|--0----0----0--3-5--3-|--0----0----0--3-5--3-|
--0----0----0--3-5--3-|--0----0----0--3-5--3-|--0----0----0--3-5--3-|
--0----0----0--3-5--3-|--0----0----0--3-5--3-|--0----0----0--3-5--3-|
----------------------|----------------------|----------------------|
----------------------|----------------------|----------------------|


  E  S E  S E  S E  S        
----------------------|----||
--0----0----0--3-5--3-|----||
--0----0----0--3-5--3-|----||
--0----0----0--3-5--3-|----||
----------------------|----||
----------------------|----||
You know the bitter comes out better on a stolen guitar
You're the BLESSED, we're the Spiders from Mars!

Member 3 of the "Mick Ronson Is an extremely Awesome Guitar Player" Fanclub. PM ThePurpleRabbit to join.