#1
i posted this question once before and i wont do it again, just to make sure more people see it...

if anyone knows preferable the chords for the copeland song 'I'm A Sucker For A Kind Word' would you pleasee let me in on the secret? lead parts too if you have it

thank you!
#4
verse: A (002220)D (000230) A D 
{move up a C chord}
e|---------------------------1------------------------------------------|
B|--1-1-1---1-1-2----1-1-1-1-1------------------------------------------|
G|--x-z-0-0-z-x-x-0--x-x-x-x-2----------2-4-5-5-5-5-5-4-7-7-7-9-9-9-9---|
D|--2-2-2---2-2-2----2-2-2-2-3----then--x-x-x-x-x-x-x-x-x-x-x-x-x-x-x---|
A|--0-2-3---0-2-4----0-2-3-2-3----------0-2-3-3-3-3-3-2-5-5-5-7-7-7-7---|
E|---------------------------1------------------------------------------|
or you can just hold the C and do the notes: open D, 2 on D like (030010) then (032010)

chorus: F G F G

e|-------5------5------8----7------7--------5----------|
B|---------5------5-----------8------8---------5-------|
G|----5-------5-----5-----------9-------9--------5-----|
D|--7---------------------9--------9-------------------|
A|-----------------------------------------------------|
E|-----------------------------------------------------|

bridge:
e|-------------------1-1---|
B|--1-1-1------------1-1---|
G|--z-z-z------------2-2---|
D|--2-2-2------9*--2-3-3---|
A|--0-2-3--7*------2-3-3---|
E|-----------------0-1-1---|

F G F G Am G Am G Am G D

(the picking part: Am G? (320000) F (133211)


I'm lazy but those are the main parts
#5
thank you thank you. yeah, i dont like labeling one band as my single favorite, but if i had to choose i would definitely say copeland. and the statistics on my last.fm page dont lie, my amount of copeland plays destorys everything else