#1
Howdy UG.

In Bodom's Sixpounder, that second solo is just too damned awesome to avoid an attempt at playing it. What is this solo?

The tab is:



|----------------------------------------------------|
|-------------------------15-16-15-------18-15-------|
|-17-(17)-(17)b18r(17)-17----------17-15-------17-15-|
|----------------------------------------------------|
|----------------------------------------------------|
|----------------------------------------------------|

|-18-15-------20-18-15-20-18-15-------15----------|
|-------18-16-------------------18-16----18-16-15-|
|-------------------------------------------------|
|-------------------------------------------------|
|-------------------------------------------------|
|-------------------------------------------------|

|----------------------------------------------------|
|-------------------------15-16-15-------18-15-------|
|-17-(17)-(17)b18r(17)-17----------17-15-------17-15-|
|----------------------------------------------------|
|----------------------------------------------------|
|----------------------------------------------------|

|-18-15----------------15----------10-13-10-------|
|-------15----------15----------10----------10----|
|----------15----15----------10----------------10-|
|-------------17----------12----------------------|
|-------------------------------------------------|
|-------------------------------------------------|

|----------------------------------------------------|
|-------------------------16-17-16-------19-16-------|
|-18-(18)-(18)b19r(18)-18----------18-16-------18-16-|
|----------------------------------------------------|
|----------------------------------------------------|
|----------------------------------------------------|

|-19-16-------21-19-16-21-19-16-------16----------|
|-------19-17-------------------19-17----19-17-16-|
|-------------------------------------------------|
|-------------------------------------------------|
|-------------------------------------------------|
|-------------------------------------------------|

|----------------------------------------------------|
|-------------------------16-17-16-------19-16-------|
|-18-(18)-(18)b19r(18)-18----------18-16-------18-16-|
|----------------------------------------------------|
|----------------------------------------------------|
|----------------------------------------------------|

|-19-16----------------16----------11-14-11-------|
|-------16----------16----------11----------11----|
|----------16----16----------11----------------11-|
|-------------18----------13----------------------|
|-------------------------------------------------|
|-------------------------------------------------|

|----------------------------------------------------|
|-------------------------17-18-17-------20-17-------|
|-19-(19)-(19)b20r(19)-19----------19-17-------19-17-|
|----------------------------------------------------|
|----------------------------------------------------|
|----------------------------------------------------|

|-20-17-------22-20-17-22-20-17-------17----------|
|-------20-18-------------------20-18----20-18-17-|
|-------------------------------------------------|
|-------------------------------------------------|
|-------------------------------------------------|
|-------------------------------------------------|

|----------------------------------------------------|
|-------------------------17-18-17-15----------------|
|-19-(19)-(19)b20r(19)-19-------------17-15-14-17-15-|
|----------------------------------------------------|
|----------------------------------------------------|
|----------------------------------------------------|

|-------------------------------------------|
|-------------------------------------------|
|-14----------------------14-12-14-12-------|
|----17-15-14-12-14-15-17-------------15-14-|
|-------------------------------------------|
|-------------------------------------------|



Difficulty? /10 please =].
R E G G A E
#2
i'd say a 7 if we're gonna compare it to similar styles. It's a hard solo, but not for dedicated metal guitarists.
Quote by IROBOTInferno
Dumbass that is a classical guitar, use nylon strings or the neck will crack... and not the kind you were smoking when you wrote this.
#3
Hey, that version is much better than the one that I've learned. Was a guitar pro file with only the solo, but this is more economic and it plays smoother. Thanks!
^ seconded.

Äh, Sie wollen also mit Schlitz.
#4
Quote by Philipp Sobecki
Hey, that version is much better than the one that I've learned. Was a guitar pro file with only the solo, but this is more economic and it plays smoother. Thanks!


I looked at the Guitar Pro file as well, and though "Bite me, no way am I string skipping high e down to A."

So I looked at the text tabs and found that. Much better. Now I only have to string skip to D.
R E G G A E
#5
Yeah, but there was a file with sweep picking instead of string skipping, too. It's called "Children Of Bodom - Six Pounder (Solo 2).gp4". The sweeping there is just starting on another string/fret, which is really hard. But I guess that it's just me ^^ :P
^ seconded.

Äh, Sie wollen also mit Schlitz.