#1
yo, does anyone know any root chords i could use in a blues scale? and i don't mean like chords names and stuff cuz i already know which chords, i'm talking about tabbin out some little root chords around the scale like thes two below..


e--------7--------7----
b--------7--------8----
g--------7--------9----
d-----------------------
a-----------------------
E-----------------------

i know the first one is a Bm, and the second one is a Em, but yeah little root chords, that are kinda bluesy
#2
7----7-----------------------------
7----8----------------------------
7----7---------------------------
--9----9----------------------------
------------------------------
-----------------------------


just chnage the temp n feel