#1
E|-----------------------------------------------------
B|-----------------------------------------------------
G|-----------------------------------------------------
D|-----------------------------------------------------
A|-7-8-8-7-5-5-6-6-5-3-3-3-3-2-0-2-2-3-2-0
E|-5-----------3-------------1-----------0-----------

E|-----------------------------------------------------
B|-----------------------------------------------------
G|-----------------------------------------------------
D|-----------------------------------------------------
A|-7-8-8-7-5-5-6-6-5-3-3-3-3-2-0-2-3-2-0-5-7
E|-5-----------3-------------1-------------------- 3-5

I was playing it and it sounded like something I've heard of, or did I just make something up.
#4
this

E|-----------------------------------------------------
B|-----------------------------------------------------
G|-----------------------------------------------------
D|-----------------------------------------------------
A|-7-8-8-7-5-5-6-6-5-3-3-3-3-2-0-2-3-2-0-5-7
E|-5-----------3-------------1----------------------3-5

should be
#5
should be

E|-----------------------------------------------------
B|-----------------------------------------------------
G|-----------------------------------------------------
D|-----------------------------------------------------
A|-7-8-8-7-5-5-6-6-5-3-3-3-3-2-0-2-3-2-0-5-7
E|-5-----------3-------------1-----------------------3-5
#6
Is it good, and the tab is kinda screwed up I'm going to try to fix it.
#8
E|-----------------------------------------------------
B|-----------------------------------------------------
G|-----------------------------------------------------
D|-----------------------------------------------------
A|-7-8-8-7-5-5-6-6-5-3-3-3-3-2-0-2-2-3-2-0
E|-5------------3------------1------------0-----------

E|-----------------------------------------------------
B|-----------------------------------------------------
G|-----------------------------------------------------
D|-----------------------------------------------------
A|-7-8-8-7-5-5-6-6-5-3-3-3-3-2-0-2-3-2-0-5-7
E|-5------------3------------1-----------------------3-5
#9
Dude, next time you want to write a tab here, use a monospace font like fixedsys of courier... Then you can copy them right outta notepad or whatever you use to tab your stuff.

And another thing, you don't have to add another post to try to correct yourself- there's an "edit" option on all your posts that you can use to change an existing post.