peilun
WILLIAM HUNG's no.1 FAN
Join date: Dec 2003
490 IQ
#1
what song? this may not be the exact key

the counting is on the high e string.

e--1---2---3---4---1---2---3---4---1---2---3---4---1---2---3---4
b-------------------------------------------------------------------------
g-------------------------------------------------------------------------
d-------------------------------------------------------------------------
a------9----7-------7--5----7--5--4-----4---7-----2\4-4------0----
E---------9----------------5----------------------------------2---------
---A---------E------D-----------------A------E----------D------A------(chords)

it's about 3 beats per two seconds....
it's a 4/4 measure
that's the melody of the chorus

i think the lyrics is stay with me.. blah blah blah you;ll see..(im not sure of this)
Lost_Rose
UGs custom LP player
Join date: Sep 2003
416 IQ
#3
where you get the tab from?
Is it a guy singing or a woman?
what genre
-----(\__/)-----
------(0--0)-----
-----=\0/=-----



FIGHT THE BAN

SAVE OUR LAMBS
peilun
WILLIAM HUNG's no.1 FAN
Join date: Dec 2003
490 IQ
#4
it was a tab i made for the melody of the song...
the song was out during the 90's.. it had a sound like dig but a voice like the guy in weezer.

the numbers on the high e string signify the timing.. it goes 1-2-3-4

and the chords are on top of the low e string