#1
Could anybody work out the picking pattern for the intro to Bedlight for Blue Eyes - Jumper? The chords go as follows
Am/F, C, G.
It shouldn't be much work for somebody, just I really suck at ear-tabbing songs.
"Everybody, one day will die and be forgotten. Act and behave in a way that will make life interesting and fun. Find a passion, form relationships, don't be afraid to get out there and fuck what everyone else thinks."
#2
ok well im not so sure if ill be able to post this correctly. and im not 100% sure on this either but i think it goes something like
-----0-----0------0-----
-------1-------1--1-----
---------2---2----2-----
---2-------------- 2-----
--------------------------
--------------------------

and just sorta repeat the pattern^^ i hope that helps

<-----beginner lol.
Last edited by Katsunagi at Feb 7, 2007,
#3
:: 1+2+3+4+ 5+6+7+8+ 1+2+3+4+ 5+6+7+8+
e| -0--0--0 -0--0--0 -3--3--3 -3--3--0
B| --1--1-- --1--1-- --0--0-- --0--0-0
G| ---2--2- ---0--0- ---0--0- ---0--0-
D|(2)------ -------- -------- 0-------
A| 0------- 3------- -------- --------
E| -------- -------- 3------- --------
[edit][/edit]
Last edited by DeanLo at Feb 29, 2008,