#1
Chorus
|-------------------| 
|-------------------|
|-4-4-4-4-----------|
|-4-4-4-4-4-5-5-5-4-|
|-2-2-2-2-4-5-5-5-4-|
|---------2-3-3-3-2-|
|
VERSE
|-------------------|---|-------|
|-------------------|---|-------|
|---9-9-9-9-9-4-5-5-|-5-|-5-----|
|---9-9-9-9-9-4-5-5-|-5-|-5-----|
|---7-7-7-7-7s2s3-3-|-3-|-3-----|
|-------------------|---|-------|
|
Bridge
|-------------------|---|-------|-----------------|----------|
|-------------------|---|-------|-----------------|----------|
|-4-4-4-4---4-4-4---|-4-|-4---4-|-4-4-4-4---4-4-4-|-4-4------|
|-4-4-4-4-4-4-4-4---|-4-|-4-4-4-|-4-4-4-4-4-4-4-4-|-4-4-4----|
|-2-2-2-2-4-2-2-2---|-2-|-2-4-2-|-2-2-2-2-4-2-2-2-|-2-2-4----|
|---------2---------|---|---2---|---------2-------|-----2----|

Solo
|-----------------------------------------------------|
|-----------------------------------------------------|
|-----------------------------------------------------|
|-2b4-2b4h3p-2b4-2b4h3p-2-0p--------------------------|
|----------------------------2-2h3p-2b4-2h3-2b4-0p----|
|-----------------------------------------------------|


Arrangement (standard pop music stuff tweaked a tad)

Chorus
Verse
Bridge
Chorus
Verse
Bridge
Solo
Bridge
Verse
Bridge
Chorus


Tell me what you think, please!
#2
Not quite sure how the timing goes for the chorus (not sure how the note duration is split between the nine chords) but it seems like a decent - if not a little generic. The verse works pretty well. You might want to make the bridge more interesting - maybe use some other chords. The solo doesn't seem to work to well - maybe try to fit it to a scale without using too many chromatics. Overall, my biggest suggestion would be to maybe add some riffs, either a riff that could be played after the chorus or a riff played during the verse, chorus, and/or bridge. And, for the solo, maybe try spanning more of the fretboard to make it a little "funner". Still, it's not too bad, and it could definitely make a solid pop-punk song.
#3
Yeah I just realised I messed up while tabbing this. But the solo is more of an anit solo, feeback noise bends and crap.