#1
pm .....
|-----------------------------------
|-----------------------------------
|-----------------------------------
|-----------------------------------
|--7--7----9--7----7--7----9--7
|--5--5----5--5----5--5----5--5 etc.

Is this still 12 bar blues if i use the blues chord progression but play it kinda rock-y and solo over it?

thanks

(its important)
#2
yes, if you:

After four measures, go:
-----------------------------
-----------------------------
-----------------------------
77--97--77--97--77--97 ect.
55--55--55--55--55--55
-----------------------------
D
then yours for four more measures of your pattern, and then this pattern for two measures:
--------------------------------------------
--------------------------------------------
--------------------------------------------
99--9-11- 99--9-11- 77--97--77--97
77--7-7---77--7-77--55--55--55--55
--------------------------------------------
E =========== D =========
Then two more measures of your pattern, then repeat the whole thing
Jesus for president. PM me to join the campaign. or just sig it.

Of course God has a sense of humor. Look at the Platypus...

Member #9 of the Trumpet Players' Alliance, PM E V H 5150 to inquire about joining.
#4
i accually like cashewchaching he seems to be one of the few people who understand everything about the blues on here.